Guitaretab - guitar tabs
Song name
# A B C D E F G H I J K L M N O P Q R S T U V W X Y Z

Dylan Bob - Blowing In The Wind tab

-------------------------------------------------------------------------------
		  Blowing in the wind : Bob dylan
-------------------------------------------------------------------------------
Tabbed by: Trevor Duncan
Email:

Hey everyone Iím not sure but I think this is how bob Dylan plays it.Its very close at 
has the stepping down which most tabs donít do.Anyway Its all bar chords and I didnít 
the strumming patterns.If you listen to the song youíll get the idea.Enjoy.hope you like it

Capo 2

Tuning: Srandard

Intro  D      D       D         D
e|---x-5-----5-5-----5-5-------5-5-------------------------------------------|
B|---7-7-----7-7-----7-7-------7-7-------------------------------------------|
G|---7-7-----7-7-----7-7-------7-7-------------------------------------------|
D|---7-7-----7-7-----7-7-------7-7-------------------------------------------|
A|-5-------5--------5--------5-----------------------------------------------|
E|---------------------------------------------------------------------------|

[ Tab from: http://www.guitaretab.com/d/dylan-bob/5717.html ]
Verses   D      G      Bm      A        d
e|-----5-5-------3------2------5-5------5-5--------------5-5----------3--------|
B|-----7-7-------3------3------5-5------7-7--------------7-7----------3--------|
G|-----7-7-------4------4------6-6------7-7--------------7-7----------4--------|
D|-----7-7-----5------4--------7-7------7-7--------------7-7--------5----------|
A|---5-----------------------7--------5----------------5-----------------------|
E|-----------------------------------------------------------------------------|
      How many roads.....               down           Before...
     Bm
e|---2-------5-5----5-5------------------------------------------------------|
B|---3-------7-7----7-7------------------------------------------------------|
G|---4-------7-7----7-7------------------------------------------------------|
D|-4---------7-7----7-7------------------------------------------------------|
A|---------5-----2h5---------------------------------------------------------|
E|---------------------------------------------------------------------------|


Chorus
     G     Bm       A             Bm               G                 G    Bm
e|---3-----2--------5-5-------------2-2-----------3---3--------------3-----2-|
B|---3-----3--------5-5-------------3-3-----------3---3--------------3-----3-|
G|---4-----4--------6-6-------------4-4-----------4---4--------------4-----4-|
D|-5-----4----------7-7-----------4-------------5-----5------------5-----4---|
A|----------------7---------------------------------5------------------------|
E|---------------------------------------------------------------------------|
   The answer my friend...      Is blowing in the wind...       the answer

      A              D
e|----5-5-------------5-5-5--------------------------------------------------|
B|----5-5-------------7-7-7--------------------------------------------------|
G|----6-6-------------7-7-7--------------------------------------------------|
D|----7-7-------------7-7-7--------------------------------------------------|
A|--7---------------5--------------------------------------------------------|
E|---------------------------------------------------------------------------|
   Is blowin in the wind

And thatís it.He pretty much continues the chorus from the beginning during his 
solo And then into the verses.
Related for Blowing In The Wind tab