Song name
# A B C D E F G H I J K L M N O P Q R S T U V W X Y Z

Dylan Bob - Isis tab

Help us improve GuitareTab! Take a short survey!
Faun - Isis
german pagan folk band
a simple, but great and deeply melancholic song!


00:14 - 01:39

|-----------------|-----------------|-----------------|-----------------|
|-----------------|-----------------|-----------------|-----------------|
|---0---0---0---0-|-----------------|-----------------|-----------------|
|-2---2---2---2---|---0---0---0---0-|-----------------|---0---0---0---0-|
|-----------------|-2---2---2---2---|---0---0---0---0-|-2---2---2---2---|
|-----------------|-----------------|-2---2---2---2---|-----------------|


- 01:40
not 100% complete, but enough to play it
if you want the complete tabs for guitar, try it yourself ;-)
|-----------------|-----------------|-----------------|-----------------|
|-------0---------|-------0---------|-----------------|-------0---------|
|---0-------0---0-|---------------0-|-------0---------|---------------0-|
|-2---2---2---2---|---0-------0-----|---------------0-|---0-------0-----|
|-----------------|-2---2---2---2---|---0-------0-----|-2---2---2---2---|
|-----------------|-----------------|-2---2---2---2---|-----------------|



- 02:14 Violinsolo
1 (G   F#E      D     E F#    C#   D   B)
|--------------|----------|----------|-----------------|
|-/8---7\5---5-|\3----5/7-|---2----3-|-0---------------|
|--------------|----------|----------|-----------------|
|--------------|----------|----------|-----------------|
|--------------|----------|----------|-----------------|
|--------------|----------|----------|-----------------|

2 (G      A     F#                 E   F#) 
|--------------|----------|----------|-----------------|
|-/8----8\10---|-7-----7--|-7----7-5-|-7---------------|
|--------------|----------|----------|-----------------|
|--------------|----------|----------|-----------------|
|--------------|----------|----------|-----------------|
|--------------|----------|----------|-----------------|

play 1 1 2 1 for solo
and 1 at the end of the song
end on B


Ich hre deine Stimme in dem Wind
ich schliee die Augen, denn ich war blind
ich falte die Hnde, die Reise beginnt
ich hre deine Stimme in dem Wind
ich hre mich rufen und ich lache dabei
ich sehe die Wolken, ich ziehe vorbei
ich lach und weine in einem Zug
das Fallen endet mit dem Flug
ich hre deine Stimme in dem Wind
ich schliee die Augen, denn ich war blind
ich falte die Hnde, die Reise beginnt
ich hre deine Stimme in dem Wind

ich gehe zu den Steinen, verlasse die Zeit
ich sterbe im Winter, ich stehe dir bei
ich wachse im Regen, ich spre den Wind
ich spre die Erde, ich halte dein Kind
ich hre deine Stimme in der Nacht
ich schliee die Augen, ich bin aufgewacht
ich falte die Hnde, die Reise beginnt
ich hre deine Stimme in dem Wind
Related for Isis tab