Song name
# A B C D E F G H I J K L M N O P Q R S T U V W X Y Z

Dylan Bob - Lovesick tab

ON BROKEN WINGS- Lovesick (Intro)

Hit Strings One By One.
No Long Pauses In Between Notes.
Listen To The Song.
They Must Use Different Tuning Than Standard, cant get The Hight Note Sound.
*= Harmonic

e|-----------------|-----------------|-----------------|-----------------|
B|-----------------|-----------------|-----------------|-----------------|
G|---16--16--12----|--12--12---------|---16--16--12----|--12--12---------|
D|-----------------|-----------------|-----------------|-----------------|
A|-15--15--15------|15--15----15-----|-15--15--15------|15--15--15-0-----|
E|-----------------|-----------------|-----------------|-----------------|

e|-----------------|-----------------|-----------------|-----------------|
B|-----------------|-----------------|-----------------|-----------------|
G|---16--16--12----|--12--12---------|---16--16--12----|--12--12---12*---|
D|-----------------|-----------------|-----------------|-----------------|
A|--0---0---0------|-0---0-------0---|-0----0---0------|-----------------|
E|-----------------|-----------------|-----------------|-----------------|
Tap to rate this tab
# A B C D E F G H I J K L M N O P Q R S T U V W X Y Z