Song name
# A B C D E F G H I J K L M N O P Q R S T U V W X Y Z

Dylan Pratt - Poisoned Fruit tab

Wonderful song by Dylan Pratt, first song of his ive tried to figure out, and glad 
it was this one cause it was freakign wonderful when i sa the live studio recording on youtube.
RJM brings me many really godo folk artists

http://dylanprattmusic.com/

INTRO:
E|-3----3---3-----3----3----------|
A|--------------------------------|   PLAYED 2X  
D|---0----2-----0---0----2-0------|   
G|----0-------0------0-------2-0~-|
B|--------1-----0--------1-0------|
E|--------------------------------|

THEN:

E|-0----0---0-0---0-0---0h3---3--|   the hammer on here is 
A|---2---------------------------|   a bit tricky so watch the 
D|-------------------------------|   video to see how Dylan does it.
G|----0---0-----0-----0---0-0--0-|
B|----3---1-----0-----0---0-1--0-|
E|-------------------------------|

PLAY NEXT PART TWICE THEN GO INTO VERSE

E|-3----3---3-----3----3----------|
A|--------------------------------|  
D|---0----2-----0---0----2-0------|   
G|----0-------0------0-------2-0~-|
B|--------1-----0--------1-0------|
E|--------------------------------|

VERSE:

right back to where we started from....

E|-3----3---3-----|
A|----------------|  
D|---0----2-----0-| 2x
G|----0-------0---|
B|--------1-----0-|
E|----------------|



E|-3----3---3-----3----3----------|
A|--------------------------------|  
D|---0----2-----0---0----2-0------|   
G|----0-------0------0-------2-0~-|
B|--------1-----0--------1-0------|
E|--------------------------------|

you left all your loves, left all your hopes..

E|-3----3---3-----|
A|----------------|  
D|---0----2-----0-| 2x
G|----0-------0---|
B|--------1-----0-|
E|----------------|



E|-3----3---3-----3----3----------|
A|--------------------------------|  
D|---0----2-----0---0----2-0------|   
G|----0-------0------0-------2-0~-|
B|--------1-----0--------1-0------|
E|--------------------------------|

CHORUS:

that I love you still

E|-0----0---0-0---0-0---0h3---3--| 
A|---2---------------------------| 
D|-------------------------------| 
G|----0---0-----0-----0---0-0--0-|
B|----3---1-----0-----0---0-1--0-|
E|-------------------------------|


E|-3----3---3-----3----3----------|
A|--------------------------------|  
D|---0----2-----0---0----2-0------|   
G|----0-------0------0-------2-0~-|
B|--------1-----0--------1-0------|
E|--------------------------------|

that I will be leaving now

E|-0----0---0-0---0-0---0h3---3--| 
A|---2---------------------------| 
D|-------------------------------| 
G|----0---0-----0-----0---0-0--0-|
B|----3---1-----0-----0---0-1--0-|
E|-------------------------------|


E|-3----3---3-----3----3----------|
A|--------------------------------|  
D|---0----2-----0---0----2-0------|   
G|----0-------0------0-------2-0~-|
B|--------1-----0--------1-0------|
E|--------------------------------|

(GOES INTO NEXT VERSE)

The rest of the versus and chorus's have the exact same pattern, hope this 
helped!! rate, and let me know what you think please!
Tap to rate this tab
# A B C D E F G H I J K L M N O P Q R S T U V W X Y Z