Song name
# A B C D E F G H I J K L M N O P Q R S T U V W X Y Z

Dynamite Hack - Switcheroo tab

Dynamite Hack - Switcheroo
Submitted By: Jason Lee
EMail: loser_guitarist@hotmail.com
album: Superfast

intro:
E:----------------------------------------------6----
B:---------------------------------------------------
G:-------------------------------------------4-------
D:-0--2--------0--2--------0--2--------0--2----------
A:-------2--1--------2--1--------2--1----------------
E:---------------------------------------------------

intro 2/verse:
E:-------------------------------------4-------4---------5-------5---|
B:-----3-------3-------5-------5-----3---3---3---3-----3---3---3---3-|
G:---2---2---2---2---4---4---4---4-4-------4-------4-3-------3-------|
D:-0-------0-------2-------2-----------------------------------------|
A:-------------------------------------------------------------------|
E:-------------------------------------------------------------------|

chorus:
B B     B B     |B B   E   C#  G#|A A     A A     |A A   E   C#  G#|
1 + 2 + 3 + 4 + |1 + 2 + 3 + 4 + |1 + 2 + 3 + 4 + |1 + 2 + 3 + 4 + |

bridge: B      F#      A       E  C# F#

tabbed out 12/17/02 by =jl=
Tap to rate this tab
 
# A B C D E F G H I J K L M N O P Q R S T U V W X Y Z