Song name
# A B C D E F G H I J K L M N O P Q R S T U V W X Y Z

Dysrhythmia - And Just Go tab

dysrhythmia- and just go
http://www.myspace.com/dysrhythmiaband

|-----------------------------------------------------|
|-----------------------------------------------------|
|-7----------9--9-----7---4----------------4----------|
|-------7---------7s9---9----9s4-----7----------------|
|---7s9---99---------------------5s7---2s4------------|
|-7-------------7-------------------------------------I

|-------------|----------------| 
|-------------|----------------| 
|---------2br-|---------2br----|
|---4-2-4-----|---4-2-4----4-2-| 
|-------------|----------------|
|-0-----------|-0--------------| 

|-------------|----------------| 
|-------------|----------------| 
|-----7-------|-----9----------|
|-----5-------|-----5----------| 
|-----7-------|-----7----------|
|-0-----------|-0--------------| 

|---------------------------10------------------------|
|------8----------------------------8-----------------|
|-----------11---------------------------11-----------|
|-----------------------------------------------------|
|--------------------9--------------------------------|
|-0---------------------------------------------------I

|--2---0--------0---0---------------------------------|
|--0-------2----3------3---------0--------------------|
|--4-------4----0-------------2-----2-----------------|
|--5-------5---------------4-----------4--------------|
|-----------------------------------------------------|
|-----------------------------------------------------I

|---------10----------------7-------------0-----------0-----|
|------14----14----------10---10--------5---5-------6---6---|
|---11----------11-----9---------9----7-------7---7-------7-|
|12-----------------10--------------4-----------3-----------|
|-----------------------------------------------------------|
|-----------------------------------------------------------I

|-----------------------------------------------------|
|-------------------------------------4---------------|
|-----------------------------------------------------|
|----------------3------------------3-----------------|
|-----6-7-6----4---4----6-7-6-----4-------------------|
|--4---------2-------4---------2----------------------I

|-----------------------------------------------------|
|-----------------------------------------------------|
|--------------------------------3---1--3-------------|
|----------------3-------------4---4------------------|
|-----6-7-6----4---4----6-7-6-------------------------|
|--4---------2-------4--------------------------------I

|-----------------------------------------------------|
|------------------4----------------------------------|
|--------------------------------3---1--3-------------|
|----------------3-------------4---4------------------|
|-----6-7-6----4--------6-7-6-------------------------|
|--4---------2-------4--------------------------------I

(hit the octaves on the g string)
|-----------------------------------------------------------|
|-----------------------------------------------------------|
|-----------------------------------------------------------|
|-----------------------------------------------------------|
|-666666664466999999998899111111111111131311119999998866446-I
|-----------------------------------------------------------|

|-----------------------------------------------------------|
|-----------------000000000000000000------------------------|
|-----------------3b44444444444r3333------------------------|
|-----------------------------------------------------------|
|-6666444422221111------------------------------------------|
|-----------------------------------------------------------|

i will finish the tabbing out the rest later i hope
Tap to rate this tab
# A B C D E F G H I J K L M N O P Q R S T U V W X Y Z