Song name
# A B C D E F G H I J K L M N O P Q R S T U V W X Y Z

Dystopia - Control All Delete tab

Tabbed by Joe Cancellare. Drop B tuning (B-F-B♭-E♭-G-C)

C----------------------------------------------------|
G----------------------------------------------------|
Eb---------------------------------------------------|
Bb---------------------------------------------------|
F----------------------------------------------------|
B--0-0-8-8-5-5-0-0-8-8-1-1-0-0-8-8-5-5-8-8-11-11-8-8-|

|---------------------------------------|
|---------------------------------------|
|---------------------------------------|
|---------------------------------------|
|-8-8-8--8--0--0--0--1--1-1-1--4--1--0--|
|-8-8-8--8--0--0--0--1--1-1-1--4--1--0--|

|-----------------------------------------------------------------------------------------------|
|-----------------------------------------------------------------------------------------------|
|-----------------------------------------------------------------------------------------------|
|-----7-7-8-8-----7-7-9-9-----7-7-8-8-8-7-------------------------------------------------------|
|-----------------------------------------8-7----7-11--11-11-11--11--11--11--5--5-5-5--5--5--5--|
|-8-8---------9-9---------8-8-----------------10---11--11-11-11--11--11--11--5--5-5-5--5--5--5--|
Tap to rate this tab
 
# A B C D E F G H I J K L M N O P Q R S T U V W X Y Z