Song name
# A B C D E F G H I J K L M N O P Q R S T U V W X Y Z

Dystopia - Backstabber tab

DYSTOPIA - BACKSTABBER

A Standard tuning

a|-------------------------|
E|-------------------------|
C|-------------------------|
G|-2-2-5--7-8-7-8-9--8--3--| 1,3,5,7
D|-2-2-5--7-8-7-8-9--8--3--|
A|-0-0-3--5-6-5-6-7--6--1--|

a|-------------------------|
E|-------------------------|
C|-------------------------|
G|-2-2-5--7-8-7-8-9--3--5--| 2,4,6,8
D|-2-2-5--7-8-7-8-9--3--5--|
A|-0-0-3--5-6-5-6-7--1--3--|

a|---------------------------------|
E|---------------------------------|
C|-----------9-9-9-9-8-8-8-8-5-5-5-|
G|-----------9-9-9-9-8-8-8-8-5-5-5-| x10
D|-2-2-2-2-2-7-7-7-7-6-6-6-6-3-3-3-|
A|-0-0-0-0-0-----------------------|
   P M P MPM

a|-----------|
E|-----------|
C|-----------|
G|-----------|
D|-2-3-4-3-2-|
A|-0-1-2-1-0-|
   P M P MPM

a|-----------------------------------------|
E|-----------------------------------------|
C|-----------------------------------------|
G|-8-8-8-8-5-5-5-14-14-14-14-11-12-11-14-9-| x8
D|-6-6-6-6-3-3-3-12-12-12-12-9/-10/9--12-7-|
A|-----------------------------------------|

a|--------------------|
E|--------------------|
C|--------------------|
G|-2-2-8-8-2-8-88-7-3-| x4
D|-2-2-8-8-2-8-88-7-3-|
A|-0-0-6-6-0-6-66-5-1-|

a|---------------------------------|
E|---------------------------------|
C|-----------9-9-9-9-8-8-8-8-5-5-5-|
G|-----------9-9-9-9-8-8-8-8-5-5-5-| x10
D|-2-2-2-2-2-7-7-7-7-6-6-6-6-3-3-3-|
A|-0-0-0-0-0-----------------------|
   P M P MPM

END
Tap to rate this tab
 
# A B C D E F G H I J K L M N O P Q R S T U V W X Y Z