Song name
# A B C D E F G H I J K L M N O P Q R S T U V W X Y Z

Dz Deathrays - Gebbie Street tab

Heres the correct version, written for guitar. The intro/main riff are all on a guitar 
with an octave pedal an octave down.
This is my first tab.

Main riff:

|--------|----------|----------|-------|---------------  |-----------------------|
|--------|----------|----------|-------|---------------  |-----------------------|
|--4-----|-4----2--|--4---7---|-------|--2------------  |-----4-------7----------|
|--------|----------|----------|-----4-|----------2---- |------------------------|
|-----2--|----2---0|----2---5|--------|-----0---------- |--2------5--------------|
|--------|----------|----------|--2----|--------------0 |------------------------|

In between verses (still an octave down):

|-----|---------|--------------|-------|------------------------------------------------|
|-----|---------|--------------|-------|------------------------------------------------|
|--4--|--4---2-|--------2-----|--------|-------2----------------------------------------|
|-----|---------|--2-3-4-4-3-2|--2--0-|--2-3-4-4-2--------------------------------------|
|-----|---------|--------------|--------|-----------------------------------------------|
|-----|---------|--------------|--------|-----------------------------------------------|

(Regular Guitar Octave):

|----------------- |-----------------|-----------------|---------------------|
|----------------- |-----------------|-----------------|---------------------|
|----7------------ |----7------------|----7------------|---------------------|
|----7------------ |----7------------|----7------------|---------------------|
|------------5---- |-----------5-----|-----------5-----|---------------------|
|--7---5-6-7--7-5-|-5---5-6-7--7-5-|-4---5-6-7--7-5-|-3-----2--5-5----0------|

Last riff

|-----10----10-10|-----7----7-7-|-----5----5-5-|------------- 0--------|
|-----------------|---------------|--------------|-------0-3-3-0-------|
|-----------------|---------------|--------------|---------------------|
|-----------------|---------------|--------------|---------------------|
|-----------------|-------------- |-------------- |--------------------|
|--7------7-------|--5-----4-----|--3-----2-----|--0-------------------|
Tap to rate this tab
# A B C D E F G H I J K L M N O P Q R S T U V W X Y Z