Song name
# A B C D E F G H I J K L M N O P Q R S T U V W X Y Z

Dz Deathrays - Teenage Kickstarts tab

-------------------------------------------------------------------------------
                            DZ DEATHRAYS - TEENAGE KICKSTARTS
-------------------------------------------------------------------------------
Tabbed by: Dan Pham
E-mail: danpham123@gmail.com

Tuning: Standard

INTRO

e|-------------------------------------------------------------|
B|-------------------------------------------------------------|
G|-------------------------------------------------------------|
D|--10-12-13---------------------------------------------------|
A|------------10-12-13-----------------------------------------|
E|----------------------8-10-11--8-10-11--8-10-11--8-10-11-----|

VERSE

e|-------------------------------------------------------------------|
B|-------------------------------------------------------------------|
G|-------------------------------------------------------------------|
D|-------------------------------------------------------------------| x2
A|--------------------------9-11-12--------------------------9-11-12-|
E|--2-2-2-2-2-2-2-2-8-8-8-8----------7-7-7-7-7-7-7-7-5-5-5-5---------|

CHORUS

e|---------------------------|
B|---------------------------|
G|---------------------------|
D|---------------------------| x2
A|---------------------------|
E|-9(x8)-12(x8)-5(x8)-12(x8)-|

BRIDGE

e|-----------------------------------------|
B|-----------------------------------------|
G|-----------------------------------------|
D|--10-12-13--10-12-13--10-12-13--10-12-13-|
A|-----------------------------------------|
E|-----------------------------------------|

After the bridge play the verse and chorus again then play the breakdown sort of thing

BREAKDOWN SORT OF THING

e|-----------------------------|
B|-----------------------------|
G|-----------------------------| After this play the end riff
D|-----------------------------|
A|-----------------------------|
E|--4--4-4-2--2-2-7--7-7-8--9--|

END RIFF

e|--------------------------|
B|--------------------------|
G|--------------------------|
D|----------2-4-------------| Repeat this a bunch of times til the end of the song, 
A|------2-4------0--2-3-4-3-| the last time through tack a fat F# (2nd fret on the 
E|--2-----------------------| low E string) to the end.
Tap to rate this tab
 
# A B C D E F G H I J K L M N O P Q R S T U V W X Y Z