Song name
# A B C D E F G H I J K L M N O P Q R S T U V W X Y Z

Dzej - Sunce Ljubavi tab

                           Dzej - Sunce Ljubavi (Intro)

Ovoj tab ne e 100 % tocen, nekoj noti se ispushteni, no sepak e dobar i ubavo zvuchi.



e|-5/10-10~~~---12-10-10\6~~~---4/6~~---5-3-2-3/5~~~---3~~~---2------1/2~~~|
b|-5/10-10~~~---------12\8~~~---6/8~~---7-5-4-5/7~~~---5~~~---4------3/4~~~|
g|--------------------------------------------------------------4-4--------|
D|--------------------------------------------------------------6-5--------|
A|-------------------------------------------------------------------------|
E|-------------------------------------------------------------------------|
Od 0 do 10 sekundi (Youtube video)
                                          
e|-4-2-4/7-7~--5~~~---10~-9~-12~~~---10-9-10~~~----------------------------|
b|-5-4-5/8-8~--7~~~----7~-5~--8~~~----7-7--7~~~----------------------------|
g|-------------------------------------------------------------------------|
D|------------------------------------------------2--0---------------------|
A|-------------------------------------------------------------------------|
E|-------------------------------------------------------------------------|
                                     |0:17 sek.|

Od 10 do 18 sekundi (Youtube video)
Tap to rate this tab
 
# A B C D E F G H I J K L M N O P Q R S T U V W X Y Z