Guitaretab - guitar tabs
Song name
# A B C D E F G H I J K L M N O P Q R S T U V W X Y Z

Dzrt - Amanha No Sei tab

Highlighted       Show chord diagrams
 This is my frst tab so sorry if someyhing's wrong... i sont know if the song is played 
this but this is how i play it... enjoy!


Verse 1

   A   F#m     Bm   E   A   C#7  F#m
E|-0---2-|    |-2---0---0-------2-|
B|-2---2-|    |-3---0---2---2---2-|
G|-2---2-| 2x |-4---1---2---4---2-|
D|-2---4-|    |-4---2---2---3---4-|
A|-0---4-|    |-2---2---0---4---4-|
E|-0---2-|    |-2---0---0-------2-|


   A   F#m     Bm   E   A   C#7  D  E
E|-0---2-|    |-2---0---0-------2---0-|
B|-2---2-|    |-3---0---2---2---3---0-|
G|-2---2-| 2x |-4---1---2---4---2---1-|
D|-2---4-|    |-4---2---2---3---0---2-|
A|-0---4-|    |-2---2---0---4-------2-|
E|-0---2-|    |-2---0---0-----------0-|


Chorus:

    A         Bm     E   A   E
E|-0-0-0-0---2-2-2---0---0---0-|
B|-2-0-x-0---3-2-x---0---2---0-|
G|-x-x-2-1---x-x-4---1---2---1-|
D|-2-2-2-2---4-4-4---2---2---2-|
A|-0-0-0-0---2-2-2---2---0---2-|
E|-0-0-0-0-----------0---0---0-|

    A         Bm     E   A
E|-0-0-0-0---2-2-2---0---0-|
B|-2-0-x-0---3-2-x---0---2-|
G|-x-x-2-1---x-x-4---1---2-|
D|-2-2-2-2---4-4-4---2---2-|
A|-0-0-0-0---2-2-2---2---0-|
E|-0-0-0-0-----------0---0-|

Verse 2
[ Tab from: http://www.guitaretab.com/d/dzrt/177404.html ]
   A   F#m     Bm   E   A   C#7  F#m
E|-0---2-|    |-2---0---0-------2-|
B|-2---2-|    |-3---0---2---2---2-|
G|-2---2-| 2x |-4---1---2---4---2-|
D|-2---4-|    |-4---2---2---3---4-|
A|-0---4-|    |-2---2---0---4---4-|
E|-0---2-|    |-2---0---0-------2-|


   A   F#m     Bm   E   A   C#7  D  E
E|-0---2-|    |-2---0---0-------2---0-|
B|-2---2-|    |-3---0---2---2---3---0-|
G|-2---2-| 2x |-4---1---2---4---2---1-|
D|-2---4-|    |-4---2---2---3---0---2-|
A|-0---4-|    |-2---2---0---4-------2-|
E|-0---2-|    |-2---0---0-----------0-|


Chorus:

    A         Bm     E   A   E
E|-0-0-0-0---2-2-2---0---0---0-|
B|-2-0-x-0---3-2-x---0---2---0-|
G|-x-x-2-1---x-x-4---1---2---1-|
D|-2-2-2-2---4-4-4---2---2---2-|
A|-0-0-0-0---2-2-2---2---0---2-|
E|-0-0-0-0-----------0---0---0-|

    A         Bm     E   A   Fm
E|-0-0-0-0---2-2-2---0---0---2-|
B|-2-0-x-0---3-2-x---0---2---2-|
G|-x-x-2-1---x-x-4---1---2---3-|
D|-2-2-2-2---4-4-4---2---2---4-|
A|-0-0-0-0---2-2-2---2---0---4-|
E|-0-0-0-0-----------0---0---2-|


Bridge and Chorus:

      B        C#m   Fm  B
E|-2-2-2-2---4-4-4---2---2-|
B|-4-2-x-2---5-4-x---2---4-|
G|-x-x-4-3---x-x-6---3---4-|
D|-4-4-4-4---6-6-6---4---4-| 2x
A|-2-2-2-2---4-4-4---4---2-|
E|-2-2-2-2-----------2---2-|

    B
E|-2-0-|
B|-4-4-|
G|-4-4-|
D|-4-4-| 4x
A|-2-2-|
E|-2-2-|
Related for Amanha No Sei tab
Advertisement will be closed in 10 seconds