Song name
# A B C D E F G H I J K L M N O P Q R S T U V W X Y Z

Dzrt - Para Mim Tanto Me Faz tab

Help us improve GuitareTab! Take a short survey!
-------------------------------------------------------------------------------
			Para Mim tanto me faz - Dzrt
-------------------------------------------------------------------------------
Tabbed by: PegaZos  <2005>
Email: pegazos_site@hotmail.com

Tuning:

 Intro 

e|---3----5----7--/--3----|
B|---3----5----7--/--3----|
G|---3----7----9--/--5----|   X 2
D|---5----7----9--/--5----|
A|---5----5----7--/--3----|
E|---3----0----0--/--0----|

Nothing more than felings

| /  slide up
| \  slide down
| h  hammer-on
| p  pull-off
| ~  vibrato
| +  harmonic
| x  Mute note
===============================================================================
Related for Para Mim Tanto Me Faz tab