E For Explosion - Lies Lies Lies tab

http://www.myspace.com/eforexplosion
Song: Lies Lies Lies
Artist: E For Explosion
Album: Reinventing the Heartbeat
Year: 2008

Intro:

E||------------------------------------------------------|
B||--10-11-10----------------10-11-10--------------------|
G||------------7~-7-8-7----------------7~-7-8-10---------|
D||----------------------8~------------------------------|
A||------------------------------------------------------|
E||------------------------------------------------------|

E||------------8-6--------------8-6---------------8-6-------------------------|
B||------------------9----------------9-----------------9---------------------|
G||-----7-8-10-----------7-8-10-----------7-8-10--------------7-8-7-----------|
D||-------------------------------------------------------------------8~------|
A||---------------------------------------------------------------------------|
E||---------------------------------------------------------------------------|

(Verse 1)

(Pre-chorus)

Chorus:
E||-------------------------------------------|
B||----11------10-----------------------------|
G||-------10------10---------7~--8~-----------| x3
D||-------------------------------------------|
A||-------------------------------------------|
E||-------------------------------------------|

E||-----------------------------------------------|
B||----11---10------------------------------------|
G||-------------10~-------------------------------|
D||-----------------------------------------------|
A||-----------------------------------------------|
E||-----------------------------------------------|


(Repeat Intro)

(Verse 2)

(Pre-Chorus)

(Chorus x2)

Solo:
E||------------8-6--------------8-6----------------8-6------------------------|
B||------------------9----------------9---------------------------------------|
G||-----7-8-10-----------7-8-10-------------7-8-10-------7-8-7~---------------|
D||---------------------------------------------------------------------------|
A||---------------------------------------------------------------------------|
E||---------------------------------------------------------------------------|

E||-----------------------------------------------------|
B||-----11--10---------------------11--10---------------|
G||------------10-------------------------10~-----------|
D||--------------------11~--10~-------------------------|
A||-----------------------------------------------------|
E||-----------------------------------------------------|

E||---------------------------------------------------------------------------------------|
B||---11--10-----11--10-----11--10----11--13-13-13---11~---13-13-13---11~---13-13-13---11~|
G||----------10---------10---------10-----------------------------------------------------|
D||---------------------------------------------------------------------------------------|
A||---------------------------------------------------------------------------------------|
E||---------------------------------------------------------------------------------------|

E||-----------------------------------------------|
B||------13~-------------------11~----------------|
G||-----------------------------------------------|
D||-----------------------------------------------|
A||-----------------------------------------------|
E||-----------------------------------------------|
Tap to rate this tab
 
# A B C D E F G H I J K L M N O P Q R S T U V W X Y Z