Guitaretab - guitar tabs
Song name
# A B C D E F G H I J K L M N O P Q R S T U V W X Y Z

Eagle And Hawk - Sundancer tab

-------------------------------------------------------------------------------
			     SUNDANCER - Eagle and Hawk
-------------------------------------------------------------------------------
Tabbed by: Spyderbean
Email: butter_bean_56000@hotmail.com
[ Tab from: http://www.guitaretab.com/e/eagle-and-hawk/117624.html ]
Tuning:
         
e|----------------------------------3---------|---------------------------------------3----------|
B|-----3------3--------3--------------3---3/5-|-----3------3------3------3--------------3---3/5--|
G|---2-------------------4--------0-----0-----|---2------------------------4--------0-----0------|
D|-0--------2--------4----------0-------------|-0--------2------2------4----------0--------------|
A|--------0--------2----------2---------------|--------0------0------2----------2----------------|
E|--------------------------3-----------------|-------------------------------3------------------|



| /  slide up
| \  slide down
| h  hammer-on
| p  pull-off
| ~  vibrato
| +  harmonic
| x  Mute note



It is a work in progress, I'll be updating soon. Later dudes and dudettes.
===============================================================================
Advertisement will be closed in 10 seconds