Song name
# A B C D E F G H I J K L M N O P Q R S T U V W X Y Z

Eagle Eye Cherry - Save Tonight tab

#----------------------------------PLEASE NOTE--------------------------------#
#This file is the author's own work and represents their interpretation of the#
#song. You may only use this file for private study, scholarship, or research.#
#-----------------------------------------------------------------------------#
#-- File created with Instab - http://www.pconline.com/~smcarey/instab.html --#
#-----------------------------------------------------------------------------#

Author/Artist: Eagle Eye Cherry
Title: Save Tonight
/ slide up
h hammer on
p.m. palm mute

Standard Tuning

-------|----------------------------------------------|--|--------------------|
-------|----------------------------------------------|--|--------------------|
-------|------5--x-x-x-2--2---------------x-x-x-4--4--|--|--------------------|
-------|-0h2--2--x-x-x-3--3-------10--10--x-x-x-5--5--|--|--------------------|
-------|-0-------------------8/10-10--10--------------|--|--------------------|
-------|-x------------------------x---x---------------|--|--------------------|
        Intro/Verse p.m.

-------|------------------|---------------------------------------------------|
-------|------------------|---------------------------------------------------|
-------|-5---2--------4---|---------------------------------------------------|
-------|-2---3---10---5---|---------------------------------------------------|
-------|---------10-------|---------------------------------------------------|
-------|---------x--------|---------------------------------------------------|
        Verse/Chorus Chords Strum
Tap to rate this tab
# A B C D E F G H I J K L M N O P Q R S T U V W X Y Z