Song name
# A B C D E F G H I J K L M N O P Q R S T U V W X Y Z

Eagle Seagull - Photograph chords

Highlighted       Show chord diagrams
From the great self-titled debut album, released in 2006 on Paper Garden Records.
http://www.myspace.com/eagleseagull

This is how i play it on acoustic guitar.


INTRO:[x2]

  (D)
e--2-2-2-2-3-3-3-3-5-5-5-5-10-10-10-10-|
B--3-3-3-3-3-3-3-3-3-3-3-3-10-10-10-10-|
G--2-2-2-2-2-2-2-2-2-2-2-2-11-11-11-11-|
D--0-0-0-0-0-0-0-0-0-0-0-0-0--0--0--0--|
A--------------------------------------|
E--------------------------------------|

  (Am)
e--8-8-8-8-7-7-7-7-5-5-5-5-x-x-x-x-|
B--5-5-5-5-5-5-5-5-5-5-5-5-5-5-5-5-|
G--5-5-5-5-5-5-5-5-5-5-5-5-9-9-9-9-|
D--7-7-7-7-7-7-7-7-7-7-7-7-7-7-7-7-|
A--7-7-7-7-7-7-7-7-7-7-7-7-7-7-7-7-|
E--5-5-5-5-5-5-5-5-5-5-5-5-5-5-5-5-|

  (D)
e--2-2-2-2-3-3-3-3-5-5-5-5-10-10-10-10-|
B--3-3-3-3-3-3-3-3-3-3-3-3-10-10-10-10-|
G--2-2-2-2-2-2-2-2-2-2-2-2-11-11-11-11-|
D--0-0-0-0-0-0-0-0-0-0-0-0-0--0--0--0--|
A--------------------------------------|
E--------------------------------------|

  (Am)
e--12-12-12-12-12-12-12-12-12-12-12-12-|
B--13-13-13-13-13-13-13-13-13-13-13-13-|
G--14-14-14-14-14-14-14-14-14-14-14-14-|
D--14-14-14-14-14-14-14-14-14-14-14-14-|
A--0--0--0--0--0--0--0--0--0--0--0--0--|
E--------------------------------------|

[use normal chords for verses]

D                             Am
 Is there a part of you in my photograph?
D                  Am
 I think there is
D                        Am
 Some part of you smiles out at me
D                       Am
 I just want my life to be good

[Intro x2]

D                      Am
 I must say you make me constantly aroused
D                           Am
 It's the way you're always smiling
D                          Am
 And your lips, they're as smooth as oil
D                        Am
 And your skin is always shining

F                           E
 My life's so bent for ever oh
F                            E
 My mouth on your tongue, it goes away
           A
And here I come

[Intro x2]

D                         Am
 There's something in the way you look at me
D                          Am
 And the way you're always smiling
D                          Am
 And your lips, they're as smooth as oil
D                        Am
 And your skin is always shining

F                           E
 My life's so bent for ever oh
F                            E
 My mouth on your tongue, it goes away
            A
And here I come

[switch to 6/8]

Am
 So what if I carry your photo
 Em
Around with me everywhere?
        G
I don't care
                D
It's not such a bad thing to do
             Am
And so, I've tried and I've tried to do
         Em
What you told me to do
     G
I've tried, I've tried,
                 D
I've tried to forget about you
         Am
Oh, I've tried, I've tried, I've tried,
                Em
I've trie-oh oh oh...

G  D

Am  Em  G  D
[play this a couple of times and then end on Am]
Tap to rate this tab
# A B C D E F G H I J K L M N O P Q R S T U V W X Y Z