Song name
# A B C D E F G H I J K L M N O P Q R S T U V W X Y Z

Eagles Of Death Metal - Dont Speak tab

Tabbed by sixwheeledbeast
Eagles of Death Metal - Don't Speak
Tuning: Open G GGDGBD - Capo Third Fret

Tabbed as if capo wasn't there to avoid confusion.

Finally a tab in the correct tuning.
I am still working on the soloing parts that
are played under the riffs by guitar one.

PM any questions/corrections thanks, rate please.

KEY
x  - mute
b  - bend
r  - release
qb - quick bend
pb - pre-bend

#Intro
Guitar 1
d|-----------------------------------|
B|-----------------------------------|
G|-----------------------------------|
D|------3--3--3x---3--3--3x----3x-3x-|
G|------3--3--3x---3--3--3x----3x-3x-|
G|------3--3--3x---3--3--3x----3x-3x-|
Guitar 2
d|-----------------------------------|
B|-----------------------------------|
G|-----------------------------------|
D|-----15-15-15x--15-15-15x---15x15x-|
G|-----15-15-15x--15-15-15x---15x15x-|
G|-----15-15-15x--15-15-15x---15x15x-|

#Main Riff
d|-------------------------------------|
B|-------------------------------------|:
G|-------------------------------------|
D|-------------------------------------|
G|-3-3--3-6-8b9r8-6-3-6-8b9r8-6-3-6-3--|:
G|-3-3---------------------------------|x4

#Verse Riff
Guitar 1
d|---------------------------------------|
B|---------------------------------------|
G|---------------------------------------|
D|-3--3-3x---3--3-3x---3--3-3x---3--3-3x-|
G|-3--3-3x---3--3-3x---3--3-3x---3--3-3x-|
G|-3--3-3x---3--3-3x---3--3-3x---3--3-3x-|
Guitar 2
d|------------------------------------------|
B|------------------------------------------|
G|------------------------------------------|
D|15-15-15x--15-15-15x--15-15-15x--15-15-15x|
G|15-15-15x--15-15-15x--15-15-15x--15-15-15x|
G|15-15-15x--15-15-15x--15-15-15x--15-15-15x|

#Main Riff

#Verse Riff (Guitar Two)

#Main Riff

#Break (Laughing)

#Solo (Guitar Two)
d|-------------------------------------------|
B|-------------------------------------------|:
G|-------------------------------------------|
D|-------------------------------------------|
G|-6-6--6-9-11b12r11-9-6-9-11b12r11-9-6-9-6--|:
G|-6-6---------------------------------------|x2

d|-------------------------------------|
B|-------------------------------------|:
G|-------------------------------------|
D|-------------------------------------|
G|-3-3--3-6-8b9r8-6-3-6-8b9r8-6-3-6-3--|:
G|-3-3---------------------------------|x2

#Breakdown (Guitar Two)
d|---------|
B|---------|:
G|---------|
D|-3--3-3x-|
G|-3--3-3x-|:
G|-3--3-3x-|x10

#Main Riff x2


Tap to rate this tab
# A B C D E F G H I J K L M N O P Q R S T U V W X Y Z