Song name
# A B C D E F G H I J K L M N O P Q R S T U V W X Y Z

Eagles Of Death Metal - I Like To Move In The Night tab

Tabbed by sixwheeledbeast
Eagles of Death Metal - I Like To Move In The Night
Tuning: Open G GGDGBD 


PM any questions/corrections thanks, rate please.

KEY
x  - mute
b  - bend
r  - release
~  - vibrato
qb - quick bend
pb - pre-bend

#Intro
d|-----------------------------------------------|
B|-----------------------------------------------|
G|---------------------3----------------3-3-0----|
D|------2----2-----3-5--------------3-5------00x-|
G|---0---3b---3b-0-------3~-33-5-5---------------|
G|-0x------0-------------------------------------|

d|-----------------------------------------------|
B|--------------------------------------------3--|
G|-----------------3----------------------3-5----|
D|--2----2-----3-5---------------------3-5-------|
G|---3b---3b-0-------3~33-3~3-3/5~5~5------------|
G|-----0-----------------------------------------|


#Main Riff
d|-----------------------------------------------|
B|----------------------------5-5--------7-7-----|:
G|------------------------3-3-5-5-3--5-5-7-7-5---|
D|---------2----2---------3-3-5-5-3--5-5-7-7-5---|
G|-0-0-0----3b---3b--0-0--3-3-3-3-3--5-5-5-5-5---|:
G|-0-0-0-0----0----0-0-0--3-3-3-3-3--5-5-5-5-5---|x4

#Main Riff Ending 1
d|-----------------------------------------------------|
B|-----------------------------------------------------|
G|--------------19-------17\16-18/19-18/19-17\16-17\16-|
D|--2-----19b21---19-17~-------------------------------|
G|---3b---------------0--------------------------------|
G|0----0-----------------------------------------------|

#Verse Riff - Bass Only

#Main Riff

#Main Riff Ending 2 (Still working on this)

#Verse Riff - Bass Only

#Alternate Main Riff
d|-----------------------------------------------|
B|-----------------------------------------------|:
G|-----------------------------------------------|
D|---------2----2---------2-3-5-7-5-3-2-3-5------|
G|-0-0-0----3b---3b--0-0--------------------5-3-5|:
G|-0-0-0-0----0----0-0-0-------------------------|x2

d|-----------------------------------------------|
B|----------------------------5-5--------7-7-----|:
G|------------------------3-3-5-5-3--5-5-7-7-5---|
D|---------2----2---------3-3-5-5-3--5-5-7-7-5---|
G|-0-0-0----3b---3b--0-0--3-3-3-3-3--5-5-5-5-5---|:
G|-0-0-0-0----0----0-0-0--3-3-3-3-3--5-5-5-5-5---|

d|-----------------------------------------------|
B|-----------------------------------------------|:
G|-----------------------------------------------|
D|---------2----2---------2-3-5-7-5-3-2-3-5------|
G|-0-0-0----3b---3b--0-0--------------------5-3-5|:
G|-0-0-0-0----0----0-0-0-------------------------|

#Main Riff Ending 3 (Still working on this)

#Bridge (Still working on this)

#Ending Main Riff Variation
d|-----------------------------------------------|
B|----------------------------5-5--------7-7-----|:
G|------------------------3-3-5-5-3--5-5-7-7-5---|
D|---------2----2---------3-3-5-5-3--5-5-7-7-5---|
G|-0-0-0----3b---3b--0-0--3-3-3-3-3--5-5-5-5-5---|:
G|-0-0-0-0----0----0-0-0--3-3-3-3-3--5-5-5-5-5---|x2

d|-----------------------------------------------|
B|-----------------------------------------------|:
G|-----------------------------------------------|
D|---------2----2---------2-3-5-7-5-3-2-3-5------|
G|-0-0-0----3b---3b--0-0--------------------5-3-5|:
G|-0-0-0-0----0----0-0-0-------------------------|x2

#Solo - Fade Out (Still working on this)
Tap to rate this tab
# A B C D E F G H I J K L M N O P Q R S T U V W X Y Z