Song name
# A B C D E F G H I J K L M N O P Q R S T U V W X Y Z

Eagles Of Death Metal - Flames Go Higher tab

Flames Go Higher - Eagles of Death Metal
Standard Tuning, Key of G


Main Riff
e|-----------------------------------------------|
B|-----------------------------------------------|
G|-----------------------------------------------|
D|--55----3--------55-8--5555-8------------------|
A|--55--3---3------55-8--5555-8------------------|
E|--33-6------6-3--33-6--3333-6------------------|

2nd Riff
e|-----------------------|
B|-----------------------|
G|-----------------------|
D|-10-8-10-8-5-3-5--8-5--|
A|-10-8-10-8-5-3-5--8-5--|
E|-8--6-8--6-3-1-3--6-3--|

I'm gonna set my soul on fire                    (Main)
My heart beats low while the flames go higher    (Main_
Strike the match and then the truth is told      (2nd Riff)
I'm gonna set my soul on fire                    (Main)

The Devil made me a Woman, I ain't no liar
Her eyes burn black like the lake of fire
She struck the match and then i sold my soul
For the black haired girl from the lake of fire

Im gonna set my soul on fire
My heart beats low while the flames go higher
Strike the match and then the truth is told
I just set my soul on fire

    Tabbed by CalvyHead. All-One All-One All-One
Tap to rate this tab
# A B C D E F G H I J K L M N O P Q R S T U V W X Y Z