Song name
# A B C D E F G H I J K L M N O P Q R S T U V W X Y Z

Eagles Of Death Metal - I Only Want You tab

-------------------------------------------------------------------------------
			     I only want you - Eagles of death metal
-------------------------------------------------------------------------------
Tabbed by:MoFo Stone
Email:mofostone@gmail.com

Tuning:Standard
i know he doesnt play this in standard tuning but this is pretty much whats
played if you dont wanna re tune your guitar to open G
e|---------------------------------------------------------------------------|
B|---------------------------------------------------------------------------|
G|2-4-2-5-2----5-5-7-8-5-----------------------------------------------------|
D|2-4-2-5-2----5-5-7-8-5-----------------------------------------------------|
A|0-0-0-0-0----3-3-3-3-3-----------------------------------------------------|
E|---------------------------------------------------------------------------|
and the little solo is just in A blues which is what every good solo is based on,    
the blues scale in any key is what i mean
e|-----------------------5-8-------------------------------------------------|
B|-------------------5-8-----------------------------------------------------|
G|--------------5-7-8--------------------------------------------------------|
D|----------5-7--------------------------------------------------------------|
A|----5-6-7------------------------------------------------------------------|
E|5-8------------------------------------------------------------------------|
Tap to rate this tab
# A B C D E F G H I J K L M N O P Q R S T U V W X Y Z