Song name
# A B C D E F G H I J K L M N O P Q R S T U V W X Y Z

Eagles Of Death Metal - I Gotta Feeling Just Nineteen tab

                                                 Standard tuning
                                             Based on Drokan 14 tab's


Verse

e|----------------------------------------------------|
B|----------------------------------------------------|
G|----------------------------------------------------|
D|---8-/-10-10-10-10-10-xx---8-/-10-10-10-10-10-xx----|
A|---8-/-10-10-10-10-10-xx---8-/-10-10-10-10-10-xx----|
E|---6-/-8--8--8--8--8--xx---6-/-8--8--8--8--8--xx----| 
         
e|------------------------------------------|
B|------------------------------------------|
G|------------------------------------------|
D|---6-/-7-7-7-7-7-xx---6-/-7-7-7-7-7-xx----|
A|---6-/-7-7-7-7-7-xx---6-/-7-7-7-7-7-xx----|
E|---4-/-5-5-5-5-5-xx---4-/-5-5-5-5-5-xx----|

Play x4

 
Chorus

e|-----------------------------------------------------|
B|-----------------------------------------------------|
G|-----------------------------------------------------|
D|---8-/-10-10-10-10-10-xx---10-/-15-15-15-15-15-xx----|
A|---8-/-10-10-10-10-10-xx---10-/-15-15-15-15-15-xx----|
E|---6-/-8--8--8--8--8--xx---8--/-13-13-13-13-13-xx----|

e|------------------------------------------|
B|------------------------------------------|
G|------------------------------------------|
D|---6-/-7-7-7-7-7-xx---6-/-7-7-7-7-7-xx----|
A|---6-/-7-7-7-7-7-xx---6-/-7-7-7-7-7-xx----|
E|---4-/-5-5-5-5-5-xx---4-/-5-5-5-5-5-xx----|


e|----------------------------------------------------|
B|----------------------------------------------------|
G|----------------------------------------------------|
D|---8-/-10-10-10-10-10-xx---8-/-10-10-10-10-10-xx----|
A|---8-/-10-10-10-10-10-xx---8-/-10-10-10-10-10-xx----|
E|---6-/-8--8--8--8--8--xx---6-/-8--8--8--8--8--xx----|


e|------------------------------------------|
B|------------------------------------------|
G|------------------------------------------|
D|---6-/-7-7-7-7-7-xx---6-/-7-7-7-7-7-xx----|
A|---6-/-7-7-7-7-7-xx---6-/-7-7-7-7-7-xx----|
E|---4-/-5-5-5-5-5-xx---4-/-5-5-5-5-5-xx----|


e|-----------------------------------------------------|
B|-----------------------------------------------------|
G|-----------------------------------------------------|
D|---8-/-10-10-10-10-10-xx---10-/-15-15-15-15-15-xx----|
A|---8-/-10-10-10-10-10-xx---10-/-15-15-15-15-15-xx----|
E|---6-/-8--8--8--8--8--xx---8--/-13-13-13-13-13-xx----|

e|------------------------------------------|
B|------------------------------------------|
G|------------------------------------------|
D|---6-/-7-7-7-7-7-xx---6-/-7-7-7-7-7-xx----|
A|---6-/-7-7-7-7-7-xx---6-/-7-7-7-7-7-xx----|
E|---4-/-5-5-5-5-5-xx---4-/-5-5-5-5-5-xx----|


e|-----------------------------------------------------|
B|-----------------------------------------------------|
G|-----------------------------------------------------|
D|---8-/-10-10-10-10-10-xx---10-/-15-15-15-15-15-xx----|
A|---8-/-10-10-10-10-10-xx---10-/-15-15-15-15-15-xx----|
E|---6-/-8--8--8--8--8--xx---8--/-13-13-13-13-13-xx----|


e|------------------------------------------|
B|------------------------------------------|
G|------------------------------------------|
D|---7-7-6--7-7-6---7-7-6--7--7-7-----------|
A|---7-7-6--7-7-6---7-7-6--7--7-7-----------|
E|---5-5-4--5-5-4---5-5-4--5--5-5-----------|



Bridge

e|------------------------------------------------|
B|------------------------------------------------|
G|------------------------------------------------|
D|---8-/-10-10-10-10-10----8-/-10-10-10-10-10-----|
A|---8-/-10-10-10-10-10----8-/-10-10-10-10-10-----|
E|---6-/-8--8--8--8--8-----6-/-8--8--8--8--8------| 
         
e|----------------------------------------|
B|----------------------------------------|
G|----------------------------------------|
D|---6-/-7-7-7-7-7----6-/-7-7-7-7-7-xx----|
A|---6-/-7-7-7-7-7----6-/-7-7-7-7-7-xx----|
E|---4-/-5-5-5-5-5----4-/-5-5-5-5-5-xx----|




Verse

e|----------------------------------------------------|
B|----------------------------------------------------|
G|----------------------------------------------------|
D|---8-/-10-10-10-10-10-xx---8-/-10-10-10-10-10-xx----|
A|---8-/-10-10-10-10-10-xx---8-/-10-10-10-10-10-xx----|
E|---6-/-8--8--8--8--8--xx---6-/-8--8--8--8--8--xx----| 
         
e|------------------------------------------|
B|------------------------------------------|
G|------------------------------------------|
D|---6-/-7-7-7-7-7-xx---6-/-7-7-7-7-7-xx----|
A|---6-/-7-7-7-7-7-xx---6-/-7-7-7-7-7-xx----|
E|---4-/-5-5-5-5-5-xx---4-/-5-5-5-5-5-xx----|

Play x3

The 4th Time Is diffrent To The 1st 2nd and 3rd. It Goes Like This

e|------------------------------------------------|
B|------------------------------------------------|
G|------------------------------------------------|
D|---8-/-10-10-1010101010101010101010xx-----------|
A|---8-/-10-10-1010101010101010101010xx-----------|
E|---6-/-8--8--1010101010101010101010xx-----------|


e|------------------------------------------|
B|------------------------------------------|
G|------------------------------------------|
D|---6-/-7-7-7-7-7-xx---6-/-7-7-7-7-7-xx----|
A|---6-/-7-7-7-7-7-xx---6-/-7-7-7-7-7-xx----|
E|---4-/-5-5-5-5-5-xx---4-/-5-5-5-5-5-xx----|



Chorus


e|-----------------------------------------------------|
B|-----------------------------------------------------|
G|-----------------------------------------------------|
D|---8-/-10-10-10-10-10-xx---10-/-15-15-15-15-15-xx----|
A|---8-/-10-10-10-10-10-xx---10-/-15-15-15-15-15-xx----|
E|---6-/-8--8--8--8--8--xx---8--/-13-13-13-13-13-xx----|

e|------------------------------------------|
B|------------------------------------------|
G|------------------------------------------|
D|---6-/-7-7-7-7-7-xx---6-/-7-7-7-7-7-xx----|
A|---6-/-7-7-7-7-7-xx---6-/-7-7-7-7-7-xx----|
E|---4-/-5-5-5-5-5-xx---4-/-5-5-5-5-5-xx----|


e|-----------------------------------------------------|
B|-----------------------------------------------------|
G|-----------------------------------------------------|
D|---8-/-10-10-10-10-10-xx---10-/-15-15-15-15-15-xx----|
A|---8-/-10-10-10-10-10-xx---10-/-15-15-15-15-15-xx----|
E|---6-/-8--8--8--8--8--xx---8--/-13-13-13-13-13-xx----|

e|------------------------------------------|
B|------------------------------------------|
G|------------------------------------------|
D|---6-/-7-7-7-7-7-xx---6-/-7-7-7-7-7-xx----|
A|---6-/-7-7-7-7-7-xx---6-/-7-7-7-7-7-xx----|
E|---4-/-5-5-5-5-5-xx---4-/-5-5-5-5-5-xx----|


e|-----------------------------------------------------|
B|-----------------------------------------------------|
G|-----------------------------------------------------|
D|---8-/-10-10-10-10-10-xx---10-/-15-15-15-15-15-xx----|
A|---8-/-10-10-10-10-10-xx---10-/-15-15-15-15-15-xx----|
E|---6-/-8--8--8--8--8--xx---8--/-13-13-13-13-13-xx----|

e|------------------------------------------|
B|------------------------------------------|
G|------------------------------------------|
D|---6-/-7-7-7-7-7-xx---6-/-7-7-7-7-7-xx----|
A|---6-/-7-7-7-7-7-xx---6-/-7-7-7-7-7-xx----|
E|---4-/-5-5-5-5-5-xx---4-/-5-5-5-5-5-xx----|

e|------------------------------------------|
B|------------------------------------------|
G|------------------------------------------|
D|---7-7-6--7-7-6---7-7-6--7--7-7-----------|
A|---7-7-6--7-7-6---7-7-6--7--7-7-----------|
E|---5-5-4--5-5-4---5-5-4--5--5-5-----------|

Verse

e|----------------------------------------------------|
B|----------------------------------------------------|
G|----------------------------------------------------|
D|---8-/-10-10-10-10-10-xx---8-/-10-10-10-10-10-xx----|
A|---8-/-10-10-10-10-10-xx---8-/-10-10-10-10-10-xx----|
E|---6-/-8--8--8--8--8--xx---6-/-8--8--8--8--8--xx----| 
         
e|------------------------------------------|
B|------------------------------------------|
G|------------------------------------------|
D|---6-/-7-7-7-7-7-xx---6-/-7-7-7-7-7-xx----|
A|---6-/-7-7-7-7-7-xx---6-/-7-7-7-7-7-xx----|
E|---4-/-5-5-5-5-5-xx---4-/-5-5-5-5-5-xx----|

Play x4

Chorus


e|-----------------------------------------------------|
B|-----------------------------------------------------|
G|-----------------------------------------------------|
D|---8-/-10-10-10-10-10-xx---10-/-15-15-15-15-15-xx----|
A|---8-/-10-10-10-10-10-xx---10-/-15-15-15-15-15-xx----|
E|---6-/-8--8--8--8--8--xx---8--/-13-13-13-13-13-xx----|

e|------------------------------------------|
B|------------------------------------------|
G|------------------------------------------|
D|---6-/-7-7-7-7-7-xx---6-/-7-7-7-7-7-xx----|
A|---6-/-7-7-7-7-7-xx---6-/-7-7-7-7-7-xx----|
E|---4-/-5-5-5-5-5-xx---4-/-5-5-5-5-5-xx----|


e|-----------------------------------------------------|
B|-----------------------------------------------------|
G|-----------------------------------------------------|
D|---8-/-10-10-10-10-10-xx---10-/-15-15-15-15-15-xx----|
A|---8-/-10-10-10-10-10-xx---10-/-15-15-15-15-15-xx----|
E|---6-/-8--8--8--8--8--xx---8--/-13-13-13-13-13-xx----|

e|------------------------------------------|
B|------------------------------------------|
G|------------------------------------------|
D|---6-/-7-7-7-7-7-xx---6-/-7-7-7-7-7-xx----|
A|---6-/-7-7-7-7-7-xx---6-/-7-7-7-7-7-xx----|
E|---4-/-5-5-5-5-5-xx---4-/-5-5-5-5-5-xx----|


e|-----------------------------------------------------|
B|-----------------------------------------------------|
G|-----------------------------------------------------|
D|---8-/-10-10-10-10-10-xx---10-/-15-15-15-15-15-xx----|
A|---8-/-10-10-10-10-10-xx---10-/-15-15-15-15-15-xx----|
E|---6-/-8--8--8--8--8--xx---8--/-13-13-13-13-13-xx----|

e|------------------------------------------|
B|------------------------------------------|
G|------------------------------------------|
D|---6-/-7-7-7-7-7-xx---6-/-7-7-7-7-7-xx----|
A|---6-/-7-7-7-7-7-xx---6-/-7-7-7-7-7-xx----|
E|---4-/-5-5-5-5-5-xx---4-/-5-5-5-5-5-xx----|

e|---------------------------------------------|
B|---------------------------------------------|
G|---------------------------------------------|
D|---7-7-6--7-7-6---7-7-6--7--7-7---7-LetRing--|
A|---7-7-6--7-7-6---7-7-6--7--7-7---7-LetRing--|
E|---5-5-4--5-5-4---5-5-4--5--5-5---5-LetRing--|
Tap to rate this tab
# A B C D E F G H I J K L M N O P Q R S T U V W X Y Z