Song name
# A B C D E F G H I J K L M N O P Q R S T U V W X Y Z

Eagles Of Death Metal - I Only Want You tab

-------------------------------------------------------------------------------
			     I Only Want You - Eagles Of Death Metal
-------------------------------------------------------------------------------
Tabbed by: Chris Paz
Email: chrispaz@orange.net

Tuning: GGDGBD

This is such an easy song to play, and as with most Eagles Of Death Metal songs, it's 
It's essentially only 2 chords: A barred at the 2nd fret, and C barred at the 5th fret, 
a few extra add-ons with the little finger. Listen to the song to get the timing.

e|-2-2-2-2-2-2-2---5-5-5-5-5-5-5-5------------------------------------------|
B|-2-2-2-2-2-2-2---5-5-5-5-5-5-5-5------------------------------------------|
G|-2-2-2-2-2-2-2---5-5-5-5-5-5-5-5------------------------------------------|
D|-2-2-4-2-5-2-2---5-5-7-5-8-5-7-5------------------------------------------|
A|-2-2-2-2-2-2-2---5-5-5-5-5-5-5-5------------------------------------------|
E|-2-2-2-2-2-2-2---5-5-5-5-5-5-5-5------------------------------------------|

That's it! Feel free to email me with questions, comments and suggestions - chrispaz@orange.net
Tap to rate this tab
# A B C D E F G H I J K L M N O P Q R S T U V W X Y Z