Song name
# A B C D E F G H I J K L M N O P Q R S T U V W X Y Z

Eagles Of Death Metal - I Want You So Hard Boys Bad News tab

----------------------------------------------------------------------------
	        I want you so hard - Eagles of death metal
----------------------------------------------------------------------------
Tabbed by: simo030595
Email: scottsimpson1@hotmail.co.uk

Tuning: Standard tuning

This is my first tab but i think i have got it right

Intro
e|------------------------|
B|------------------------|
G|------------------------|     x 8
D|------------5-----------|
A|-0-0-0-0-0--0-----------|
E|-0-0-0-0-0--0-----------|

e|------------------------|
B|------------------------|
G|------------5-----------| dont know how many times you play that section
D|-7-7-7-7-7--0-----------|
A|-0-0-0-0-0--0-----------|
E|-0-0-0-0-0--0-----------|

Drum fill comes in:

e|------------------------|
B|------------------------|
G|------------5-----------| dont know how many times you play that section
D|-7-7-7-7-7--0-----------|
A|-0-0-0-0-0--0-----------|
E|-0-0-0-0-0--0-----------|

e|------------------------|
B|------------------------|
G|------------------------|     x 8
D|------------5-----------|
A|-0-0-0-0-0--0-----------|
E|-0-0-0-0-0--0-----------|

e|------------------------|
B|------------------------|
G|------------5-----------| dont know how many times you play that section
D|-7-7-7-7-7--0-----------|
A|-0-0-0-0-0--0-----------|
E|-0-0-0-0-0--0-----------|

Drum fill comes in:

e|------------------------|
B|------------------------|
G|------------5-----------| dont know how many times you play that section
D|-7-7-7-7-7--0-----------|
A|-0-0-0-0-0--0-----------|
E|-0-0-0-0-0--0-----------|

I dont know how to do the solo:
But i know the 2nd guitar:

e|------------------------|
B|------------------------|
G|------------------------|     x 8
D|------------5-----------|
A|-0-0-0-0-0--0-----------|
E|-0-0-0-0-0--0-----------|

e|------------------------|
B|------------------------|
G|------------5-----------| dont know how many times you play that section
D|-7-7-7-7-7--0-----------|
A|-0-0-0-0-0--0-----------|
E|-0-0-0-0-0--0-----------|

e|------------------------|
B|------------------------|
G|------------------------|     x 8
D|------------5-----------|
A|-0-0-0-0-0--0-----------|
E|-0-0-0-0-0--0-----------|

e|------------------------|
B|------------------------|
G|------------5-----------| dont know how many times you play that section
D|-7-7-7-7-7--0-----------|
A|-0-0-0-0-0--0-----------|
E|-0-0-0-0-0--0-----------|

After solo:

e|------------------------|
B|------------------------|
G|------------------------|     x 8
D|------------5-----------|
A|-0-0-0-0-0--0-----------|
E|-0-0-0-0-0--0-----------|

e|------------------------|
B|------------------------|
G|------------5-----------| dont know how many times you play that section
D|-7-7-7-7-7--0-----------|
A|-0-0-0-0-0--0-----------|
E|-0-0-0-0-0--0-----------|

Drum fill comes in:

e|------------------------|
B|------------------------|
G|------------5-----------| dont know how many times you play that section
D|-7-7-7-7-7--0-----------|
A|-0-0-0-0-0--0-----------|
E|-0-0-0-0-0--0-----------|

Outro:

e|------------------------|
B|------------------------|
G|------------------------|   repeat this till end of the song
D|------------5-----------|
A|-0-0-0-0-0--0-----------|
E|-0-0-0-0-0--0-----------|

So there u go enjoy the tab
If you have any comments send them in 
I hope its right
Tap to rate this tab
 
# A B C D E F G H I J K L M N O P Q R S T U V W X Y Z