Song name
# A B C D E F G H I J K L M N O P Q R S T U V W X Y Z

Eagles Of Death Metal - I Like To Move In The Night tab

Hello UG. This is a song by The Eagles of Death Metal called "I like to move in the
Sorry I didn't tab out all the little licks and riffs. If you came to this tab to learn all
I'm sorry. Mainly I've just tabbed out the intro and the chords to play the song. You 
always dance when you play this. Enjoy. -Trip272

~ means bend the string.

Chord Chart:

G: -   A#: -    C: -
   -       -       -
   -       -       -
   5       8       10
   5       8       10
   3       6       8

Drums
Intro:
|------------------------------------------------------------------------------------------|
|------------------------------------------------------------------------------------------|
|-----------------------0-3-------------------0-3~---3-0----------------------0-3----------|
|--------2------2-----3---------------------3-------------0-0--2------2-----3--------------|
|----------1~----1~---------1~----1-1-3-3-3----------------------1~-----1~--------1-1-1-1--|
|--3---3-----3-----3-----------------------------------------------3------3----------------|

------------------3-|
------------------3-|
-----------0-3-5----|
--------------------|
--1-3-3-3-----------|
--------------------|


Main riff / Chorus
|------------------------------------------------------------------|
|------------------------------------------------------------------|
|------------------------------------------------------------------|
|----------9--------9-------------------------------5--5-5-5-5-5-5-|
|--5--5-5--9-8-8-5--9-8-8-5---5-5--8--8-8-8-8-8-8---5--5-5-5-5-5-5-|
|--5--5-5--7-8-8-5--7-8-8-5---5-5--8--8-8-8-8-8-8---3--3-3-3-3-3-3-|
|--3--3-3----6-6-3----6-6-3---3-3--6--6-6-6-6-6-6------------------|

Verse:

G
I like to move, yes I move in the night
        A#                        C
You know I mellow down easy; yes it is a sight
G
I like to stroll, yes I take my time
            A#
& when them woman start dancing...
       C
Got to make them mine

Chorus (Play the main riff above or alternatively you can just play:)
G                     A#                      C
Oh! Yeah! You know we move yes we move yes we like our dancin!
G                     A#                      C
Oh! Yes! You know we move yes we move yes we like our dancin!


Verse 2:
G
I wasn't shakin, then I'z shakin so hard
              A#                        C
That's when I saw a mean women struttin in the yard
G
She got the shakes, yeah she shake it real cool
         A#                               C
Yeah she make me start a dancing, now she makes the rules


Chorus========
G                     A#                      C
Oh! Yeah! You know we move yes we move yes we like our dancin!
G                     A#                      C
Oh! Yes! You know we move yes we move yes we like our dancin!
G                     A#                      C
Oh! Yeah! You know we move yes we move yes we like our dancin!
G                     A#                      C
Oh! Yeah! You know we move yes we move yes we like our dancin!

Oh!

Then play the verse with no words (G, A#, C)

Back to chorus

End on G

Come back in to the chorus and say "Oh!" and "Yeah!" alot out loud (this is essential)

End again on G
Tap to rate this tab
# A B C D E F G H I J K L M N O P Q R S T U V W X Y Z