Guitaretab - guitar tabs
Song name
# A B C D E F G H I J K L M N O P Q R S T U V W X Y Z

Eagles Pep Band - Fly Eagles Fly Eagles Fight Song tab

Alright folks, in light of the new season, I decided to tab out the Eagles' Fight Song
by the Eagles' Pep Band (those guys you see on pre-game and stuff). It's in Standard
Tuning - EADGBe.  The only part I'm not totally sure about is the beginning of the
third measure, other than that I'm fairly sure it's accurate. Let me know what you
think.

Title: Fly Eagles Fly (Eagles' Fight Song)
Artist: Eagles' Pep Band
Tabber: Anthony Boyer (anthony11888@hotmail.com)
[ Tab from: http://www.guitaretab.com/e/eagles-pep-band/63258.html ]
|-----------------------|-----------------------------|---------------------------|
|-7-------------6-6-7---|-7S9-------------------------|-----------------------9---|
|-------6-6-6-8---------|----------8-8-8-8-11-11-10---|-----9-----8-8-10-10-11--10|
|---8-9---------------9-|-----9-11------------------9-|-9-9---8-9-----------------|
|-----------------------|-----------------------------|---------------------------|
|-----------------------|-----------------------------|---------------------------|


|--------------------------|
|-7-------------7-7-6-7----|
|-------6-6-6-8------------|
|---8-9--------------------|
|--------------------------|
|--------------------------|
Advertisement will be closed in 10 seconds