Song name
# A B C D E F G H I J K L M N O P Q R S T U V W X Y Z

Eagles - Dust In The Wind tab

Dust in the wind by Eagles
Comentarios y sujerencias: David_mtz15
Intro:

e:-----------------|-----------------|-----------------|-----------------|
B:-1---------1-----|-0---------0-----|-3---------0-----|-1---------1-----|
G:-------0-------0-|-------0-------0-|-------0-------0-|-------0-------0-|
D:-----2-------2---|-----2-------2---|-----2-------2---|-----2-------2---|
A:-3-------3-------|-3-------3-------|-3-------3-------|-3-------3-------|
E:-----------------|-----------------|-----------------|-----------------|

e:-----------------|-----------------|-----------------|-----------------|
B:-0---------0-----|-3---------3-----|-1---------1-----|-0---------0-----|
G:-------2-------2-|-------2-------2-|-------2-------2-|-------2-------2-|
D:-----2-------2---|-----2-------2---|-----2-------2---|-----2-------2---|
A:-0-------0-------|-0-------0-------|-0-------0-------|-0-------0-------|
E:-----------------|-----------------|-----------------|-----------------|

e:-----------------|-----------------|-----------------|-----------------|
B:-3---------3-----|-1---------1-----|-0---------0-----|-3---------3-----|
G:-------0-------0-|-------0-------0-|-------0-------0-|-------0-------0-|
D:-----2-------2---|-----2-------2---|-----2-------2---|-----2-------2---|
A:-3-------3-------|-3-------3-------|-3-------3-------|-3-------3-------|
E:-----------------|-----------------|-----------------|-----------------|

e:-----------------|-----------------|-----------------|-----------------|
B:-1---------1-----|-0---------0-----|-3---------3-----|-1---------------|
G:-------2-------2-|-------2-------2-|-------2-------2-|-------2---------|
D:-----2-------2---|-----2-------2---|-----2-------2---|-----2-----------|
A:-0-------0-------|-0-------0-------|-0-------0-------|-0-------0---2---|
E:-----------------|-----------------|-----------------|-----------------|


e:-----|----------------|----------------|-0-----------------------------|
B:-1-3-|-1--------1-----|-3--------3-----|---------0-----1--------1------|
G:-----|------0-------0-|-----0--------0-|-----0--------------0---------3|
D:-----|----2-------2---|---0--------0---|---2-------2------2--------2---|
A:-0-2-|-3------3-------|-2------2-------|-3-----3-------3-------3-------|
E:-----|----------------|----------------|-------------------------------|

e:-----------------|-1------1--------|-0--------------------|
B:-0------0--------|-----1------1----|---------1---0--------|
G:----0-------0----|---2------2------|-----0-----------0----|
D:--0-------0------|-0-----0---------|---2-------2---2------|
A:-----------------|-----------------|-3-----3-----3--------|
E:-3----3----------|-----------------|----------------------|


e:-----|----------------|----------------|-0-----------------------------|
B:-1-3-|-1--------1-----|-3--------3-----|---------0-----1--------1------|
G:-----|------0-------0-|-----0--------0-|-----0--------------0---------3|
D:-----|----2-------2---|---0--------0---|---2-------2------2--------2---|
A:-0-2-|-3------3-------|-2------2-------|-3-----3-------3-------3-------|
E:-----|----------------|----------------|-------------------------------|

e:-----------------|-1------1--------|-0--------------------|
B:-0------0--------|-----1------1----|---------1---0--------|
G:----0-------0----|---2------2------|-----0-----------0----|
D:--0-------0------|-0-----0---------|---2-------2---2------|
A:-----------------|-----------------|-3-----3-----3--------|
E:-3----3----------|-----------------|----------------------|
Tap to rate this tab
 
# A B C D E F G H I J K L M N O P Q R S T U V W X Y Z