Guitaretab - guitar tabs
Song name
# A B C D E F G H I J K L M N O P Q R S T U V W X Y Z

Eagles - I Dont Want To Hear Any More tab

Ok this is my first tab but I am about 95% sure this is right...listen to song to get 
slow and easy song but a little tricky

L=Legato Slide (hit note then slide to second note w/out hitting second note)
H=Hammer On
B=Bend

----------------------------------------------------------|
-----------13-13-13------------------13-------------------|
----12L14-----------14L12--10---12------12L14---10--------|
----------------------------------------------------10L12-|
----------------------------------------------------------|
----------------------------------------------------------|

[ Tab from: http://www.guitaretab.com/e/eagles/187849.html ]
-----------------------------------------------------------------------|
----------------------------------------13-13-13--------------13-------|
---------------------10-12--10---12L14------------14L12-10--12---12L14-|
-----------10--10L12---------------------------------------------------|
--8-10L12--------------------------------------------------------------|
-----------------------------------------------------------------------|


-----------------------------------------------------------------------|
---10---3---------4h5------6------5b--------5b-------------------------|
---10---3---------4h5------7------6b--------6b-------------------------|
---------------4-------------------------------------------------------|
-----------------------------------------------------------------------|
-----------------------------------------------------------------------|
Related for I Dont Want To Hear Any More tab
×
I Dont Want To Hear Any More