Song name
# A B C D E F G H I J K L M N O P Q R S T U V W X Y Z

Eagles - Victim Of Love tab

Help us improve GuitareTab! Take a short survey!
key
/=Slide up
\=slide down
(b)=bend up to the next string
(h)=hammer on
(p)=pull off


e----------------------------------------------15-15-15--15-13-18-13-13-15--|
b---17(b)-13-13-------------------------------------------------------------|
g---------------15-12-15\12-15\12-10(h)12(p)10------------------------------|
d---------------------------------------------------------------------------|
a---------------------------------------------------------------------------|
e---------------------------------------------------------------------------|

e-13-13-13-11----13-11-11-----13-11-13-11-13-15-11--------------------------|
b-------------13-----------13----------------------13---11-11-13-13-18\16---|
g---------------------------------------------------------------------------|
d---------------------------------------------------------------------------|
a---------------------------------------------------------------------------|
e---------------------------------------------------------------------------|

Sorry; this isn't in time - you will have to work out the timing yourself by listning to 
song and fitting the notation into it.

I worked this out when i was 10 years old - no joke. I am  natural!
Related for Victim Of Love tab