Song name
# A B C D E F G H I J K L M N O P Q R S T U V W X Y Z

Eagles - After The Thrill Is Gone tab

-------------------------------------------------------------------------------
		                      After the thrill is gone - The Eagles
-------------------------------------------------------------------------------

Tuning: Standard

e|--------------------------------------------------------------------------|
B|-------------5-------------------------------------------8----------------|
G|-----7(9)-7----------------------------------------5-7-9---9/7------------|
D|----------------7/9\---------5-7(9)7p5-7/10---5/7-------------------------|
A|------------------------2/7-----------------------------------------------|
E|--------------------------------------------------------------------------|

    rake
e|---10(12)-10--8-7-8-7h8p7-------------------------------------------------|
B|----x--------------------10--8-10---8-------------------------------------|
G|----x----------------------------------9---------------12-14(16)(14)p12---|
D|------------------------------------------9/10---12/14--------------------|
A|--------------------------------------------------------------------------|
E|--------------------------------------------------------------------------|

  *hold bend 
e|----------15---------------------------------------------pb(21)(19)p15----|
B|-----------------------------------------13-12--15s17-15------------------|
G|---14(16)*---pb(16)(14)-----------12-14-----------------------------------|
D|------------------------12--12h14-----------------------------------------|
A|--------------------------------------------------------------------------|
E|--------------------------------------------------------------------------|


e|--------------------------------------------------------------------------|
B|--------------------------------------------------------------------------|
G|---12h14p12---------------------------------------------------------------|
D|-------------12h14p12-----------------------------------------------------|
A|----------------------14/-------------------------------------------------|
E|--------------------------------------------------------------------------|


Tap to rate this tab
# A B C D E F G H I J K L M N O P Q R S T U V W X Y Z