Song name
# A B C D E F G H I J K L M N O P Q R S T U V W X Y Z

Eagles - Desperado tab

Help us improve GuitareTab! Take a short survey!
Simple guitar intro for Desperado. Best when finger-picked.
10/30/00

e:---------------------------------------------
b:---------3-------5----3----------------------
g:-----4-------4-----------4---------0--------2   strum F9  
d:-----5----------------------5----2-----2-----    chord
a:---------------------------------------------     once
e:---------------------------------------------   


e:---------------------------------------------
b:---------3-------5----3-----------------5----
g:-o---4-------4-----------4------------------6   strum D
d:-----5----------------------5->>>>>>7--------    chord
a:---------------------------------------------     once
e:---------------------------------------------

>>>>>>>>> = slide

  
F9 chord       
   
e:---:---:-4-:---:
b:-1-:---:---:---:
g:---:-2-:---:---:
d:-1-:---:---:---:
a:---:---:-3-:---:
e:-1-:---:---:---:
Related for Desperado tab