Song name
# A B C D E F G H I J K L M N O P Q R S T U V W X Y Z

Eagles - Busy Being Fabulous tab

Tabbed by:sam_stroud151
         Email:sam_stroud151@live.co.uk

this is the lead guitar main riffs, variations of these are played throughout the
whole song so just play around with them and you'll get it!
listen to the song for the timing!
please rate and comment :)

e|--8/10--8---------------------------------------|
B|--8/10--8---------------------------------------|
G|-----------9--7--5--7--7/9--9--9--7--5----------|
D|----------------------------------------7-------|
A|------------------------------------------------|
E|------------------------------------------------|

e|------------------------------------------------|
B|------------------------------------------------|
G|--9--7--5--7-----7h9--9--7--5--5/7--------------|
D|--------------7---------------------------------|
A|------------------------------------------------|
E|------------------------------------------------|

e|--10/8--8---------------------------------------|
B|--10/8--8---------------------------------------|
G|-----------9--7--5--9--9--7--5------------------|
D|--------------------------------7---------------|
A|------------------------------------------------|
E|------------------------------------------------|

e|------------------------------------------------|
B|------------------------------------------------|
G|--9/7--5h7--------------------------------------|
D|------------7--9--9--7--5-----9--7--5h7--5v-----|
A|---------------------------7--------------------|
E|------------------------------------------------|
Tap to rate this tab
 
# A B C D E F G H I J K L M N O P Q R S T U V W X Y Z