Guitaretab - guitar tabs
Song name
# A B C D E F G H I J K L M N O P Q R S T U V W X Y Z

Eagles - Hotel California tab

* Eagles : Hotel California (Henley, Frey, Felder)            * Capo fret 7 (Bm)
---------------------------

#  4 | Bm(Em)           | F#7(B7)           | A2(D2)          | E9(A9)         | 
 # 4        
     | G(C)             | D(G)              | Em7(Am7)        | F#7(B7)       ||

     | Bm(Em) (verse)                       | F#7(B7)                          |
       On a dark desert highway               cool wind in my hair         
    
     | A2(D2)                               | E9(A9)                           |
       warm smell of colitas                  rising up through the air

     | G(C)                                 | D(G)                             |
       up ahead in the distance              I saw a shimmering light 

     | Em7(Am7)                             | F#7(B7)                          |
      my head grew heavy & my sight grew dim I had to stop for the night

(Verse 1,2)

     | G (no capo) (chorus)                 | D                                |  
       Welcome to the Hotel Califor-          nia                       such a 

     | F#7                                  | Bm                               |
     lovely place(such a lovely place)such a  lovely face 
 
     | G                                    | D                                |
       plenty of rooms at the Hotel Califor-  nia                        any
     
     | Em                                   | (1) F#7                         ||
       time of year(any time of year)you can   find it hear

     | (2) F#7                              || (3) F#                         ||
       alibis                                  ...but you can never leave"

   Bm(Em)             F#7(B7)         A2(D2)          E9(A9)
E |------------0-----|-------2-------|-------0-------|-----------0---|
B |--------0---------|-----0-----0---|-----3-----3---|-------0-------|
G |----------0---0-2-|---2-----------|---2-----2---2-|-----0---0-----|
D |------2-----------|-1-------1---1-|-0-------------|---2-----------|
A |----2-------------|---------------|---------------|-4-------------|
E |--0---------------|---------------|---------------|---------------|

    G(C)               D(G)            Em7(Am7)        F#7 (B7)
E |-----------0-------|-------3-------|-----------0---|-----------2-||
B |-------1-----------|-----0-----0---|-------1-------|-------0-----||
G |-----0---0-------0-|---0-----0-----|-----0---------|-----2---2---||
D |---2---------0h2---|---------------|---2-----2-----|---1---------||
A |-3-----------------|-2-------------|-0-----------0-|-2-----------||
E |-------------------|-------------3-|---------------|-------------||

Chords:
    A2   E9   Em7  A2  E9  Em7 Bm  F#7  A2  E9  G   D   Em   F#7(2)
   (D2) (A9) (Am7)             
E |-0-----0----0---0---2---0---14---12--12--10--10--10---7----4------|
B |-3-----0----1---0---0---3---15---14--14--12--12--10---8----6------|
G |-2-----0----0---2---1---0---16---15--14--13--12--11---9----6------|
D |-0-----2----2---2---0---2-----------------------------------------|
A |-------4----0---0---2---2-----------------------------------------|
E |--------------------0---0-----------------------------------------|

   Guitar solo:
    
   (F#7)            Bm                F#7             A2
E |---------------||----------------|----------------|-------------------------| 
B |------10h12b13-||-10-12-------7--|----------------|-----7----------7--------|
G |-6/11----------||-------9-7h9--7-|---4h7p---------|-7h9--7------7h9--7------|
D |---------------||----------------|-8------7b8-(7)-|-------9p7-9-------9p7-9-|
A |---------------||----------------|----------------|-------------------------|
E |---------------||----------------|----------------|-------------------------|

   E9                                 G
E |-------10--------------7---10b12-|-10-10b12r-7-------10-----------------|
B |-10b12----r10-7-10-8b9---7-------|-------------10b12----r10-(10)p8-10-8-|
G |---------------------------------|--------------------------------------|
D |---------------------------------|--------------------------------------|
A |---------------------------------|--------------------------------------|
E |---------------------------------|--------------------------------------|

   D                           Em7
E |------10------------------|---------------------------------------|
B |--------------------------|-----7b8-7b8r-(7)------7b8-7b8-7b8-----|
G |-9b11----r9-(9)p7---7\6-7-|-7h9-------------9p7-9-------------9p7-|
D |------------------9-------|---------------------------------------|
A |--------------------------|---------------------------------------|
E |--------------------------|---------------------------------------|

   F#7
E |------------------7------------------||
B |------7-10------7--------------------||
G |-9b11------9b11-----9b11r-(9)-7-9b11-||
D |-------------------------------------||
A |-------------------------------------||
E |-------------------------------------||

  (8va---> )
   Bm                                   F#7                     
E |-14-----14-----14-----14-----14-----|-12-----12-----12---16/18-|
B |---15-----15-----15-----15-----15---|---14-----14-----14-------|
G |-----16-----16-----16-----16-----16-|-----15-----15------------|
D |------------------------------------|--------------------------|
A |------------------------------------|--------------------------|
E |------------------------------------|--------------------------|

   A2                                   E9
E |-12-----12-----12-----12-----12-----|-10-----10-----10---14/16-|
B |---14-----14-----14-----14-----14---|---12-----12-----12-------|
G |-----14-----14-----14-----14-----14-|-----13-----13------------|
D |------------------------------------|--------------------------|
A |------------------------------------|--------------------------|
E |------------------------------------|--------------------------|
  
   G                                    D
E |-10-----10-----10-----10-----10-----|-10-----10-----10---12/14-|
B |---12-----12-----12-----12-----12---|---10-----10-----10-------|
G |-----12-----12-----12-----12-----12-|-----11-----11------------|
D |------------------------------------|--------------------------|
A |------------------------------------|--------------------------|
E |------------------------------------|--------------------------|
                                                  (2)
   Em                    F#7(2)                   Bm
E |-7---7---7---7---7---|-9-----9-----9---12/14-||----------------||
B |--8---8---8---8---8--|--11----11----11-------||----------------||
G |---9---9---9---9---9-|----11----11-----------||----------------||
D |---------------------|-----------------------||----------------||
A |---------------------|-----------------------||----------------||
E |---------------------|-----------------------||----------------||


Verse 1,2:   There I stood in the doorway
             I heard the mission bell
             And I was thinking to myself "this could be
             Heaven or this could be hell"
             Then she lit up a candle
             And she showed me the way
             There were voices down the corridor
             I thought I heard them say

Verse 2:     Her mind is Tiffany twisted
             She got her Mercedes Bends
             She got a lot pretty, pretty boys
             That she calls friends
             How they dance in the courtyard
             Sweet summer sweet
             Some dance to remember
             Some dance to forget
             So I called up the captain:
             "Please bring me my wine"
             He said: "we haven't had that spirit here
             Since nineteen-sixty-nine
             And still those voices are calling from far away
             Wake you up in the middle of the night
             Just to hear them say:   (to Chorus)

Verse 3:     Mirrors in the ceiling
             The pink champagne on ice
             And she said "we are all just prisoners here
             Of our own device"
             And in the master's chamber
             They gathered for the feast
             They stab it with their steely knives
             But they just can't kill the beast
             Last thing I remember
             I was running for the door
             I had to find the passage back
             To the place I was before
             "Relax" said the nightman
             "We are programmed to receive
             You can check out any time you like
             But you can never leave"   (to Guitar solo) 


*******************************************************************************

                                           Keep rockin !

                                           Max ( Max_Guitarplayer@hotmail.com )

*******************************************************************************

[ Tab from: http://www.guitaretab.com/e/eagles/24855.html ]
Related for Hotel California tab
×
Best way to learn
"Hotel California"