Song name
# A B C D E F G H I J K L M N O P Q R S T U V W X Y Z

Eagles - Hotel California Live tab

----------------------------------------------------------------------------
	     Hotel California Live Electric - The Eagles
----------------------------------------------------------------------------
Tabbed by:Adam Metcalfe
Email:atm.8@hotmail.com

Tuning:eBGDAE



So I looked everywhere for the electric version of
this live.  I couldn't find it anywhere so I decided
I'd try and figure it out on my own.  Forgive that the
solos and Joe Walsh's parts aren't very good.  I usually
just play Felder's part.

There are 3 guitars, they are as follows:

12-string acoustic w/ capo on 2nd fret: Glenn Frey

6 string electric (Fender Telecaster if you care): Joe Walsh

Gibson double-neck w/ capo on 7th fret of 12-string neck: Don Felder

This part took forever cus I couldn't find any video of it
being played so I had to play around with it so it might
be wrong but it works.  It's heavily palm muted and I assume played by
Walsh or Felder on the 6 string electric. Play it several times at the
beginning before the main intro starts.

e ---2--2---|
B ---2--2---|
G ---3--3---|
D ---4--4---|
A ----------|
E ----------|

Intro:
Felder 12 string

  Bm                               F#7
e 7------------------7---------|-------------9----------------------------|
B 7----------7-----------7--7--|-------7------------7---------------------|
G 7-----7--------7-------7--9--|-----9----------9------9------------------|
D 9---9---9----9---------------|---8----------------8---------------------|
A 9----------------------------|----------9-------------------------------|
E 7----------------------------|------------------------------------------|


  Asus2                                   E9
e --------------7----------------------|----7-----7---------7----7--------|
B ----------10-----10------10------10--|------------7------------7--------|
G ------9-----------------9-------9----|-------7------7----------7--------|
D ---7-----------------7---------------|----------------12------12--------|
A -----------------------------7-------|-11-------------------------------|
E -------------------------------------|----------------------------------|


  G                                        D
e --------------------7-----------------|----10------10--------10----------|
B ------------8----------------8--------|-------7---------7-------7------7-|
G -------7--------7-------------------7-|---------7------------------------|
D -----9---9----9-----------x----7h9----|-7-------------7--------------7---|
A --10-------------------10-------------|--------------------9-------------|
E --------------------------------------|---------------------------10-----|


  Em7                                  F#7
e -------------------7--------------|-----------------9-------------------|
B ------------8----8------------7---|-----------7-------------------------|
G -------7----------------7---------|------9-------9----------------------|
D -----9---9------------9-----------|----8---8----------------------------|
A --7-----------9-------------------|--9----------------------------------|
E ---------------------------7------|-------------------------------------|

Now Felder repeats that and Walsh comes in

 Bm                   F#7              Asus2           E9
e ----------------|-----------------|---------------|------------------o--|
B ----------------|-----------------|---------------|----------------o----|
G ----------------|-----------------|---------------|--------1-----1------|
D ---o-----2---4--|--2------o-------|-------o----2--|----4po-----o--------|
A ----------------|--------------4--|---4-----------|--2-------2----------|
E ----------------|-----------------|---------------|---------------------|

 G                  D                 Em7
e ----------------|----------------|-----o------------o--------o----------|
B ----------------|-------3--------|----o-o--o------o--------o------------|
G ----------------|-------2--------|---o---o------2--------4--------------|
D ------------o---|-------4--------|------------4--------5----------------|
A ---2-----4------|--o----o-----5--|--------------------------------------|
E ----------------|--2-------------|-o------------------------------------|

 F#7
e ------------------2-----------------------------------------------------|
B -------o-------o--------------------------------------------------------|
G -----3---3---3----------------------------------------------------------|
D ---4-------4------------------------------------------------------------|
A ------------------------------------------------------------------------|
E ------------------------------------------------------------------------|

Ok here is where I'm clueless on Walsh.  Glenn just strums the chords
I think, but Felder plays the intro through once more then Walsh and Felder
split. Felder's note is the higher one, Walsh is the lower.

 Bm                F#7           A         E9  G          D       Em7    F#7
e ---------------|-------------|----------|--|----------|--------|----------|
B ---------------|-------------|----------|--|----------|--------|----------|
G --7----9--9b11-|--6--9--9b11-|--6---7b8-|4-|4---6-6b8-|-2------|----------|
D --9---11-11b12-|--8-11-11b12-|--7---7b8-|6-|5---8-8b10|-4-----4|5---8b9r--|
A ---------------|-------------|----------|--|----------|-------5|7---9b10r-|
E ---------------|-------------|----------|--|----------|--------|----------|

Felder only plays this part:
e ---------------------------|
B ---------------------------|
G ---------------------------|
D ---------------------------|
A ----------2--4--5----------|
E --2---6--------------------|

Chorus:
This is played by Walsh between "Welcome to the Hotel California" and
"such a lovely place"


e ------------------------------------------------------------------------|
B ----10--10---12----10--12/14----12---10---------------------------------|
G ----11--11---12----11--12/14----12---11---------------------------------|
D ------------------------------------------------------------------------|
A ------------------------------------------------------------------------|
E ------------------------------------------------------------------------|

then both Walsh and Felder play the lead in to the second part of the chorus

e --------------------------------|
B --------------------------------|
G --------------------------------|
D -------------------2---4----5---|
A ----2----4----5-----------------|
E --------------------------------|

then Walsh plays this between "Plenty of room at the Hotel California" and
"Any time of year"

e ------------------------------------------------|
B -----15-------15------15----------------12------|
G -----14h16----14h16---14------------7---12--11--|
D ----------------------------16\--7--------------|
A ------------------------------------------------|
E ------------------------------------------------|

then the first half of the second verse is the same as the first part of the
first verse then Walsh and Felder split again. Felder on the high note,
Walsh on the low.

  Bm                      F#7                 A
e ---------7--10p9---10-------6---9p8----9---------6--9p8---9--------------|
B ---------9--12p11--12-------8--11p10--11---------7-10p9--10--------------|
G ----7--------------------6-------------------6---------------------------|
D ----9--------------------8-------------------7---------------------------|
A -------------------------------------------------------------------------|
E -------------------------------------------------------------------------|

  E9                  G                    D
e -------4---7p6--7---------4---7p6--7----------2--5p4--5------------------|
B -------6---9p8--9---------5---8p7--8----------4--7p6--7------------------|
G --4------------------4-------------------2-------------------------------|
D --6------------------5-------------------4-------------------------------|
A -------------------------------------------------------------------------|
E -------------------------------------------------------------------------|

          Em7                   F#7
e --------------------------------7b8r---7p5h7-----------------------------|
B --------------5---8p7---8-------9b10r--9p7h9-----------------------------|
G --------------7--10p9--10------------------------------------------------|
D -----4---5---------------------------------------------------------------|
A -----5---7----------------------------------------------------2--4--5----|
E -----------------------------------------------------2----6--------------|

Second chorus:

Felder plays this between "Welcome to the Hotel California" and
"such a lovely place"

e -------10----------------------------------9b10r---------|
B -----x-------------------------------10------------------|
G ----x-------pb11r9--7------9b10--------------------------|
D ---x-----------------------9-----------------------------|
A ---------------------------------------------------------|
E ---------------------------------------------------------|


Felder plays this between "They're livin' it up at the Hotel California" and
"What a nice surprise"


e ----17b19---x-x-------------------------------------------|
B ------------------pb19r17--17p15-------15b17----15--------|
G ------------------------------------h16-------------------|
D ----------------------------------------------------------|
A ----------------------------------------------------------|
E ----------------------------------------------------------|


Now comes the breakdown. It's basically the same as the first part of the
intro. Then when it's done this starts. Like the electric part of the verses
Walsh is the lower note, Felder is the higher. It is basically the second
part of the first verse combined with the second part of the second verse.

 Bm                             F#7                           A
e -------7--10p9--10------------------6---9p8----9------------------------|
B -------9--12p11-12------------------8--11p10--10------------------------|
G ---7-----------------9---9b11---6------------------9--9b11----6---------|
D ---9----------------11--11b12---8-----------------11-11b12----7---------|
A ------------------------------------------------------------------------|
E ------------------------------------------------------------------------|

                        E9                   G                         D
e ----6----9p8---9---------------4--7p6--6------4---7p6---7---------------|
B ----7---10p9--10---------------6--9p8--9------5---8p7---8---------------|
G ------------------7b8---4---4--------------4---------------6--6b8----2--|
D ------------------7b8---6---6--------------5---------------8--8b10---4--|
A ------------------------------------------------------------------------|
E ------------------------------------------------------------------------|

                      Em7               F#7
e ---2---5p4--5----------------------------7b8r----7p5h7------------------|
B ---4---7p6--7------------5---8p7---8-----9b10r---9p7h9------------------|
G ----------------4---5----7--10p9--10------------------------------------|
D ----------------5---7---------------------------------------------------|
A ------------------------------------------------------------------------|
E ------------------------------------------------------------------------|


Now the solo; as I've said, Walsh's solo is probably really wrong but it's
as close as I can get. Felder plays first, then Walsh.

                    Bm                                 F#7
e ----------------|------------------------------------|-------------------|
B ---------10--12-|12b15---10--12-------------------7--|-------------------|
G --3/11----------|------------------11\9---7--9------7|-------------------|
D ----------------|------------------------------------|-8--9--9h11---7b8\-|
A ----------------|------------------------------------|-------------------|
E ----------------|------------------------------------|-------------------|

  A                                            E9
e ---------------------------------------------|-------10------------------|
B --------7--------------------7---------------|-10b12-----pb12r10---------|
G ----7h9---7b8---------7--9------7b9----------|---------------------------|
D ---x-----------9p8h9-----------------9p7--9p7|---------------------------|
A --x------------------------------------------|---------------------------|
E ---------------------------------------------|---------------------------|

                               G
e --------------7----10b12--10-|-10b12r--7-------10------------------------|
B ---7h10--8b9----7------------|-----------10b12-----pb12r10----8--10------|
G -----------------------------|-------------------------------------------|
D -----------------------------|-------------------------------------------|
A -----------------------------|-------------------------------------------|
E -----------------------------|-------------------------------------------|

  D                                         Em7
e ---------10-------------------------------|------------------------------|
B ------------10----------------------------|------7b8-pb8r7---------------|
G ----9b11-------pb11r9--------7-6-7--------|-7h9--------------9p7h9-------|
D ------------------------7------------9--7-|------------------------------|
A ------------------------------------------|------------------------------|
E ------------------------------------------|------------------------------|

                        F#7
e ----------------------|-----------------------7--------------------------|
B ----7b8--7b8--7b8-----|-------7--10---------7----------------------------|
G -------------------9p7|-9b11----------9b11------pb11r9-7-9b11r9-9p7------|
D ----------------------|---------------------------------------------9-7--|
A ----------------------|--------------------------------------------------|
E ----------------------|--------------------------------------------------|

Now comes the second part played by Walsh. Felder just strums the chords on
the 6-string during it.

  Bm                                                     F#7
e --------------------7------7-7--------7-7--------------|-----------------|
B ---------7-10------7-------7-7--------7-7--------------|-----------------|
G ---9b11-------9b11-----9b11-----9b11------9b11r--7-9-7-|9b11\------------|
D -------------------------------------------------------|-----------------|
A -------------------------------------------------------|-----------------|
E -------------------------------------------------------|-----------------|

  A                                         E9
e ----------------------------------7-------|-------10-----12----12---------|
B ---------------------------10b12-----10-7-|-10/12----10--12-11-10-9\------|
G ----11b14r--9--11--7----------------------|-------------------------14b16-|
D --x--------------------9------------------|-------------------------------|
A -x----------------------------------------|-------------------------------|
E ------------------------------------------|-------------------------------|

  G
e -----------12----------------17------------------------------------------|
B -12-15b16-----15-17b19--17b19r--15--17--15-------------------------------|
G -------------------------------------------------------------------------|
D -------------------------------------------------------------------------|
A -------------------------------------------------------------------------|
E -------------------------------------------------------------------------|

 D
e -------15--16-17-17b19---------------------------------------------------|
B -17b19------------------17b19r--15---17---17p15--------------------------|
G -------------------------------------------------------------------------|
D -------------------------------------------------------------------------|
A -------------------------------------------------------------------------|
E -------------------------------------------------------------------------|

 Em7
e -------17--17------------------------------------------------------------|
B -17b19---------17b19r18b19----17b19r--15---------------------------------|
G -------------------------------------------------------------------------|
D -------------------------------------------------------------------------|
A -------------------------------------------------------------------------|
E -------------------------------------------------------------------------|

 F#7                             div. (Felder low(), Walsh high)
e --------17---17----------------------------------------------------------|
B -17b19~~~~------17b19r--17b19--17(14)b19(16)r--15(12)--------------------|
G -------------------------------------------------------------------------|
D -------------------------------------------------------------------------|
A -------------------------------------------------------------------------|
E -------------------------------------------------------------------------|

           Felder only~~~~~~~~~~~~~~~~~~ Walsh only~~~~~~~~~~~~~~~~~~~~~~~~
                                         (gradual release)
 Bm                                F#7 A
e --17b19--------------------------|6|--12b14r13b14-12-12-12--12p10---12-10-|
B --12b15--12b15---12b15-----------|-|-x----------------------------12------|
G -----------------------11\7------|-|x-------------------------------------|
D -----------------------------9--8|-|--------------------------------------|
A ---------------------------------|-|--------------------------------------|
E ---------------------------------|-|--------------------------------------|

 E9
e -------------------------------------------------------------------------|
B -12----10--------------------10------------------------------------------|
G -----------11\9--7---9--11--------\7-------------------------------------|
D -------------------------------------------------------------------------|
A -------------------------------------------------------------------------|
E -------------------------------------------------------------------------|

Now I'm going to tab Felder and Walsh separately from now on and start with
Felder.

          G
e --------|-10-------------------------------------------------------------|
B --------|-----10-14----12----10------------------------------------------|
G ---14b16|-----------12----11--------12-----------------------------------|
D --------|-----------------------12-----9--12-----------------------------|
A --------|------------------------------------12-10p9h10h12---------------|
E --------|----------------------------------------------------------------|

 D                                Em7            F#7
e -----14-10-12-10---------------|--------------|------9--10---12-----------|
B -------------------------------|---------10b12|r11------------------------|
G ------------------12b14r11---11|-12--12-------|---------------------------|
D --12---------------------------|--------------|---------------------------|
A -------------------------------|--------------|---------------------------|
E -------------------------------|--------------|---------------------------|

 Bm
e ---14--10------14--10-----14--10------14--10------14--10-----------------|
B ----------12----------12---------12----------12----------12--------------|
G -------------------------------------------------------------------------|
D -------------------------------------------------------------------------|
A -------------------------------------------------------------------------|
E -------------------------------------------------------------------------|

 F#7
e -12--9-----12--9-----12--9--/18------------------------------------------|
B -------11--------11------------------------------------------------------|
G -------------------------------------------------------------------------|
D -------------------------------------------------------------------------|
A -------------------------------------------------------------------------|
E -------------------------------------------------------------------------|

 A
e -12--9-----12--9-----12--9-----12--9-----12--9---------------------------|
B -------10--------10--------10--------10--------10------------------------|
G -------------------------------------------------------------------------|
D -------------------------------------------------------------------------|
A -------------------------------------------------------------------------|
E -------------------------------------------------------------------------|

 E9
e ---------------------------------/16-------------------------------------|
B -15--12-----15--12-----15--12--------------------------------------------|
G --------13---------13----------------------------------------------------|
D -------------------------------------------------------------------------|
A -------------------------------------------------------------------------|
E -------------------------------------------------------------------------|

 G
e -------------------------------------------------------------------------|
B --15--12-----15--12-----15--12-----15--12-----15--12---------------------|
G ---------12---------12---------12---------12---------12------------------|
D -------------------------------------------------------------------------|
A -------------------------------------------------------------------------|
E -------------------------------------------------------------------------|

 D
e ----------------------------------/14------------------------------------|
B -------------------------------------------------------------------------|
G --19--14------19--14-----19--14------------------------------------------|
D ---------16----------16--------------------------------------------------|
A -------------------------------------------------------------------------|
E -------------------------------------------------------------------------|

 Em7
e -------------------------------------------------------------------------|
B -------------------------------------------------------------------------|
G --16--12-----16--12-----16--12-----16--12-----16--12---------------------|
D ---------14---------14---------14---------14---------14------------------|
A -------------------------------------------------------------------------|
E -------------------------------------------------------------------------|

 F#7
e -----------------------------------14--10-----10-------------------------|
B --14--11-----14--11-----14--11-------------12----------------------------|
G ---------11---------11---------11----------------------------------------|
D -------------------------------------------------------------------------|
A -------------------------------------------------------------------------|
E -------------------------------------------------------------------------|


 Bm
e ---14--10------14--10-----14--10------14--10------14--10-----------------|
B ----------12----------12---------12----------12----------12--------------|
G -------------------------------------------------------------------------|
D -------------------------------------------------------------------------|
A -------------------------------------------------------------------------|
E -------------------------------------------------------------------------|

 F#7
e ------------------------------/18----------------------------------------|
B -17--14------------17----------------------------------------------------|
G --------15---16b18-----16p14---------------------------------------------|
D -------------------------------------------------------------------------|
A -------------------------------------------------------------------------|
E -------------------------------------------------------------------------|

 A
e -------------------------------------------------------------------------|
B -17--14-----17--14-----17--14-----17--14-----17--14----------------------|
G --------14---------14---------14---------14---------14-------------------|
D -------------------------------------------------------------------------|
A -------------------------------------------------------------------------|
E -------------------------------------------------------------------------|

 E9
e ----------------------------/16------------------------------------------|
B 15--12------------15-----------------------------------------------------|
G -------13---14b16-----14p12----------------------------------------------|
D -------------------------------------------------------------------------|
A -------------------------------------------------------------------------|
E -------------------------------------------------------------------------|

 G
e -------------------------------------------------------------------------|
B --15--12-----15--12-----15--12-----15--12-----15--12---------------------|
G ---------12---------12---------12---------12---------12------------------|
D -------------------------------------------------------------------------|
A -------------------------------------------------------------------------|
E -------------------------------------------------------------------------|

 D
e ----------------------------------/14------------------------------------|
B ----------------------15-------------------------------------------------|
G --19--14-----------------------------------------------------------------|
D ---------16----17b19-------17p15-----------------------------------------|
A -------------------------------------------------------------------------|
E -------------------------------------------------------------------------|

 Em7
e -------------------------------------------------------------------------|
B -------------------------------------------------------------------------|
G --16--12-----16--12-----16--12-----16--12-----16--12---------------------|
D ---------14---------14---------14---------14---------14------------------|
A -------------------------------------------------------------------------|
E -------------------------------------------------------------------------|

 F#7                                                         Bm
e ---------------------------------------------------------|-7-7-7-7-------|
B ---14--11-----14--11-----14--11-----14--11-----14--11----|-7-7-7-7-------|
G ----------11---------11---------11---------11---------11-|-7-7-7-7-------|
D ---------------------------------------------------------|-9-9-9-9-------|
A ---------------------------------------------------------|-9-9-9-9-------|
E ---------------------------------------------------------|-7-7-7-7-------|

Now for Walsh:

        G
e -----|7-------------------------------------------------------------------|
B -----|---7-10---7---------------------------------------------------------|
G -9b11|------------7--9---7----7-------------------------------------------|
D -----|--------7--------9--------------------------------------------------|
A -----|----------------------9----9\7p5h7/9--------------------------------|
E -----|--------------------------------------------------------------------|

 D                              Em7           F#7
e ----7------------------------|-------------|----6--7--9-------------------|
B ------7-10--7----------------|-5--5--7--7b8|r-----------------------------|
G ---------------9b11r--p7----7|-------------|------------------------------|
D -7---------------------------|-------------|------------------------------|
A -----------------------------|-------------|------------------------------|
E -----------------------------|-------------|------------------------------|

 Bm
e --10--7-----10--7----10--7----10--7----10--7-----------------------------|
B --------7---------7--------7--------7--------7---------------------------|
G -------------------------------------------------------------------------|
D -------------------------------------------------------------------------|
A -------------------------------------------------------------------------|
E -------------------------------------------------------------------------|

 F#7
e ---9--6-----9--6-----9--6----/14-----------------------------------------|
B ---------7--------7------------------------------------------------------|
G -------------------------------------------------------------------------|
D -------------------------------------------------------------------------|
A -------------------------------------------------------------------------|
E -------------------------------------------------------------------------|

 A
e ---9--5------9--5------9--5------9--5------9--5--------------------------|
B ---------5---------5---------5---------5---------5-----------------------|
G -------------------------------------------------------------------------|
D -------------------------------------------------------------------------|
A -------------------------------------------------------------------------|
E -------------------------------------------------------------------------|

 E9
e ---7--4-----7--4-----7--4---/12------------------------------------------|
B ---------5--------5------------------------------------------------------|
G -------------------------------------------------------------------------|
D -------------------------------------------------------------------------|
A -------------------------------------------------------------------------|
E -------------------------------------------------------------------------|

 G
e ----7--3-----7--3-----7--3-----7--3------7--3----------------------------|
B ----------3--------3--------3--------3---------3-------------------------|
G -------------------------------------------------------------------------|
D -------------------------------------------------------------------------|
A -------------------------------------------------------------------------|
E -------------------------------------------------------------------------|

 D
e ----5--2-----5--2------5--2---/10----------------------------------------|
B ----------3--------3-----------------------------------------------------|
G -------------------------------------------------------------------------|
D -------------------------------------------------------------------------|
A -------------------------------------------------------------------------|
E -------------------------------------------------------------------------|

 Em7
e ---3--o-----3--o------3--o------3--o-----3--o----------------------------|
B ---------o--------o---------o---------o--------o-------------------------|
G -------------------------------------------------------------------------|
D -------------------------------------------------------------------------|
A -------------------------------------------------------------------------|
E -------------------------------------------------------------------------|

 F#7
e ------------------------------------10--7-----7--------------------------|
B ---10--7------10--7------10--7-------------7-----------------------------|
G ----------7----------7----------7----------------------------------------|
D -------------------------------------------------------------------------|
A -------------------------------------------------------------------------|
E -------------------------------------------------------------------------|

 Bm
e --10--7-----10--7----10--7----10--7----10--7-----------------------------|
B --------7---------7--------7--------7--------7---------------------------|
G -------------------------------------------------------------------------|
D -------------------------------------------------------------------------|
A -------------------------------------------------------------------------|
E -------------------------------------------------------------------------|

 F#7
e ---9--6------------9-------/14-------------------------------------------|
B ---------7----8b10----8p6------------------------------------------------|
G -------------------------------------------------------------------------|
D -------------------------------------------------------------------------|
A -------------------------------------------------------------------------|
E -------------------------------------------------------------------------|

 A
e ---9--5------9--5------9--5------9--5------9--5--------------------------|
B ---------5---------5---------5---------5---------5-----------------------|
G -------------------------------------------------------------------------|
D -------------------------------------------------------------------------|
A -------------------------------------------------------------------------|
E -------------------------------------------------------------------------|

 E9
e ---7--4-----------7-------/12--------------------------------------------|
B ---------5---6b8-----6p4-------------------------------------------------|
G -------------------------------------------------------------------------|
D -------------------------------------------------------------------------|
A -------------------------------------------------------------------------|
E -------------------------------------------------------------------------|

 G
e ----7--3-----7--3-----7--3-----7--3------7--3----------------------------|
B ----------3--------3--------3--------3---------3-------------------------|
G -------------------------------------------------------------------------|
D -------------------------------------------------------------------------|
A -------------------------------------------------------------------------|
E -------------------------------------------------------------------------|

 D
e ---5--2------------5-------/10-------------------------------------------|
B ---------3----4b6------4p2-----------------------------------------------|
G -------------------------------------------------------------------------|
D -------------------------------------------------------------------------|
A -------------------------------------------------------------------------|
E -------------------------------------------------------------------------|

 Em7
e ---3--o-----3--o------3--o------3--o-----3--o----------------------------|
B ---------o--------o---------o---------o--------o-------------------------|
G -------------------------------------------------------------------------|
D -------------------------------------------------------------------------|
A -------------------------------------------------------------------------|
E -------------------------------------------------------------------------|

 F#7                                                    Bm
e ----6--2------6--2------6--2------6--2------6--2----|-2-2-2-2------------|
B ----------3---------3---------3---------3---------3-|-3-3-3-3------------|
G ----------------------------------------------------|-4-4-4-4------------|
D ----------------------------------------------------|-4-4-4-4------------|
A ----------------------------------------------------|-2-2-2-2------------|
E ----------------------------------------------------|--------------------|

Here's Glenn's part as best as I can give you for the verses and chorus'.

Bm
On a dark desert highway

F#7
Cool wind in my hair

A
Warm smell of colitas

E9
Rising up through the air

G
Up ahead in the distance

D
I saw a shimmering light

Em7
My head grew heavy and my sight grew dim

F#7
I had to stop for the night

Bm
There she stood in the doorway

F#7
I heard the mission bell

A
An' I was thinkin' to myself tis could be

E9
Heaven or this could be hell

G
Then she lit up a candle

D
An' she showed me the way

Em7
There were voices down the corridor

F#7
I thought I heard them say


Chorus:

G                           D
Welcome to the Hotel California

       F#7
Such a lovely place (such a lovely place)

       Bm
Such a lovely face

G                                  D
Plenty of room at the Hotel California

    Em7
Any time of year (any time of year)

        F#7
You can find it here


Bm
Her mind is Tiffany twisted

F#m
She got the Mercedes Benz

A
She got a lot of pretty pretty boys

E9
That she calls friends

G
How they dance in the courtyard

D
Sweet summer sweat

Em7
Some dance to remember

F#7
Some dance to forget

Bm
So I called up the captain

F#7
Please bring me my wine

        A
He said we havn't had that spirit here since

E9
nineteen sixty nine

G
And still those voices are calling from

D
Far Away

Em7
Wake you up in the middle of the night

F#7
Just to here them say


Chorus:

G                           D
Welcome to the Hotel California

       F#7
Such a lovely place (such a lovely place)

       Bm
Such a lovely face

        G                                D
They're livin' it up at the Hotel California

       Em7
What a nice surprise (what a nice surprise)

           F#7
Bring your alibis

Bm
Mirrors on the ceiling

F#7
The pink champagne on ice an' she said

A
We are all just prisoners here

E9
Of our own device

G
An' in the master's chambers

D
They gathered for the feast

Em7
They stab it with their Steely knives but they

F#7
Just can't kill the beast

Bm
Last thing I remember I was

F#7
Running for the door

A
I had to find the passage back to the

E9
Place I was before

G
Relax said the night man we are

D
Programmed to receive

Em7
You can check out any time you like

F#7
But you can never leave


he just does the verse prog through the whole solo.


LEGEND:

/    slide up
\    slide down
x    muted string
pb12 pre-bent string to 12
r7   release bend to 7
7b9  7 bend to 9
7h9  7 hammer on 9
9p7  9 pull off 7
div
16(12) division one plays note in parentheses other plays
       one outside them


Glenn's chord chart (capo on 2nd fret 2 means o):

Bm       F#7     A        E9       G        D        Em7
e|---|   e|-2-|  e|-5-|   e|-x-|   e|-3-|   e|-2-|   e|-3-|
B|-3-|   B|-2-|  B|-5-|   B|-5-|   B|-3-|   B|-3-|   B|-3-|
G|-4-|   G|-3-|  G|-2-|   G|-x-|   G|-4-|   G|-2-|   G|-4-|
D|-4-|   D|-4-|  D|-2-|   D|-4-|   D|-5-|   D|-4-|   D|-2-|
A|-2-|   A|-4-|  A|-x-|   A|-5-|   A|---|   A|-5-|   A|-2-|
E|---|   E|-2-|  E|-5-|   E|-4-|   E|---|   E|-5-|   E|-3-|

And that should be about it if you have any questions or
corrections feel free to email me atm.8@hotmail.com
Tap to rate this tab
 
# A B C D E F G H I J K L M N O P Q R S T U V W X Y Z