Guitaretab - guitar tabs
Song name
# A B C D E F G H I J K L M N O P Q R S T U V W X Y Z

Eagles - Sad Cafe tab

I have submitted this before, But i wasn't a member at the time and there were a few 
Listen to the song for timing issues.

|-------------------------------------------------|
|-------------------------------------------------|
|-----------11----8/9-8------8/9-8----------------|
|-9-11-13~-----13-------11---------11-9-11/13 13~-|
|--------------------------9----------------------|
|-------------------------------------------------|

|---------------------------------------------------|
|---------------------------------------------------|
|-11/13----11~----11-8/9-8------8/9-8---------------|
|-------13-----13----------11---------11-9-11/13-13-|
|-----------------------------9---------------------|
|---------------------------------------------------|

|-------------------------------------------------|
|-------------------------------------------------|
|-11-11/13-11~-8/11-9-11/13-11-9-9/16-16/18-16-11-|
|-------------------------------------------------|
|-------------------------------------------------|
|-------------------------------------------------|
[ Tab from: http://www.guitaretab.com/e/eagles/27782.html ]
|---------------------------------------------------------|
|---------------------------------------------------------|
|-11-13-16-16~~~~-18b-18b-16~~-11/13-16-16~-11/13-8-11-13-|
|---------------------------------------------------------|
|---------------------------------------------------------|
|---------------------------------------------------------|

|-----------------------------------------------------------|
|-----------------------------------------------------------|
|-11-13-16-16~~~~-18b-18b-16~-18-18b-16~-18b-16~----16~-18~-|
|------------------------------------------------18---------|
|-----------------------------------------------------------|
|-----------------------------------------------------------|


|----------------19~~~~------------------------|
|----------16-19--------20b-20b-19-------------|
|-16-16-18-------------------------20-18-16-18-|
|----------------------------------------------|
|----------------------------------------------|
|----------------------------------------------|

|----------------------------------------------------------------|
|----------------------------------------------------------------|
|-11/13-13-16-16~--11-11-11/12-11-9-11-9-8-8/9-9-9-8-------------|
|----------------------------------------------------11-9-8-8/9~-|
|----------------------------------------------------------------|
|----------------------------------------------------------------|
Related for Sad Cafe tab
Advertisement will be closed in 10 seconds