Song name
# A B C D E F G H I J K L M N O P Q R S T U V W X Y Z

Eagles - Desperado tab

-------------------------------------------------------------------------------
			     SONG NAME Desperado - Band Name The Eagles
-------------------------------------------------------------------------------

Tabbed By : Jared
e-mail: autigers99@yahoo.com

This is my first bass tab, but I have done regular tabs as well.  Enjoy!

G|---------------------------------------------------------------------------|
D|-----------0----------0-----------------------------0----------0-----------|
A|----3----------3--------------3-0-----3-0----3----------3----------3-0-----|
E|--3---3-12---3---3-12---3---0-----3-0------3---3-12---3---3-12---0-----3---|

G|---------------------------------------------------------------------------|
D|----------------0---------------------0------------------------------------|
A|---3-0---3----------3-----3---0-----0--------------------------------------|
E|-0-----3---3-12---3---3-0---3---3-0-----3----------------------------------|

Tap to rate this tab
# A B C D E F G H I J K L M N O P Q R S T U V W X Y Z