Song name
# A B C D E F G H I J K L M N O P Q R S T U V W X Y Z

Eagles - Try And Love Again tab

-----------------------------------------------------------------------------

                      Try and Love Again - The Eagles (GUITAR)
                       
-----------------------------------------------------------------------------
Tabbed by: Scotto10

Tuning: Standard

=============================================================================

Guitar 1 (acoustic)



     W                                       E.  S E  Q    E  S S E   
E||-------------------|-------------------|--2---2-2--2-------2-2-2--|
B||-------------------|-------------------|--0---0-0--0----0--0-0-0--|
G||-------------------|-------------------|--0---0-0--0----0--0-0-0--|
D||-------------------|-------------------|--0---0-0--0----0--0-0-0--|
A||-------------------|-------------------|--------------------------|
E||-------------------|-------------------|--3---3-3--3-------3-3-3--|


  E.  S E  Q    E  S S E     W                   W                 
--2---2-2--2-------2-2-2--|--2----------------|--2----------------|
--0---0-0--0----0--0-0-0--|--3----------------|--3----------------|
--0---0-0--0----0--0-0-0--|--2----------------|--2----------------|
--0---0-0--0----0--0-0-0--|--0----------------|--0----------------|
--------------------------|-------------------|-------------------|
--3---3-3--3-------3-3-3--|-------------------|-------------------|


  E.  S E  Q    E  S S E     E.  S E  Q    E  S S E     Q    E.  S S S E  Q     
--2---2-2--2-------2-2-2--|--2---2-2--2-------2-2-2--|--2----2---2-2---2--2----|
--0---0-0--0----0--0-0-0--|--0---0-0--0----0--0-0-0--|--3----3---3-3---3--3----|
--0---0-0--0----0--0-0-0--|--0---0-0--0----0--0-0-0--|--2----2---2-2---2--2----|
--0---0-0--0----0--0-0-0--|--0---0-0--0----0--0-0-0--|--0----0---0-0---0--0----|
--------------------------|--------------------------|-------------------------|
--3---3-3--3-------3-3-3--|--3---3-3--3-------3-3-3--|-------------------------|


  Q    E.  S S S E  E  E     Q    E.  S E  E  E.  S    Q    E.  S E  E  E  E   
--2----2---2-2---2--2--2--|--2----2---2-2--2--2---2-|--2----2---2-2--2--2--2--|
--3----3---3-3---3--3--3--|--0----0---0-0--0--0---0-|--0----0---0-0--0--0--0--|
--2----2---2-2---2--2--2--|--0----0---0-0--0--0---0-|--0----0---0-0--0--0--0--|
--0----0---0-0---0--0--0--|--0----0---0-0--0--0---0-|--0----0---0-0--0--0--0--|
--------------------------|-------------------------|-------------------------|
--------------------------|--3----3---3-3--3--3---3-|--3----3---3-3--3--3--3--|


  Q    E.  S S S E  E.  S    Q    E.  S S S E  E  E   
--2----2---2-2---2--2---2-|--2----2---2-2---2--2--2--|
--3----3---3-3---3--3---3-|--3----3---3-3---3--3--3--|
--2----2---2-2---2--2---2-|--2----2---2-2---2--2--2--|
--0----0---0-0---0--0---0-|--0----0---0-0---0--0--0--|
--------------------------|--------------------------|
--------------------------|--------------------------|


  Q    E.  S S S E  E.  S    Q    E.  S S S E  E  E     Q    Q    S S E  Q     
--2----2---2-2---2--2---2-|--2----2---2-2---2--2--2--|--3----2----0-0-0--0----|
--0----0---0-0-x-0--0---0-|--0----0---0-0-x-0--0--0--|--3----2----0-0-0--0----|
--0----0---0-0-x-0--0---0-|--0----0---0-0-x-0--0--0--|--0----2----0-0-0--0----|
--0----0---0-0-x-0--0---0-|--0----0---0-0-x-0--0--0--|--0----4----2-2-2--2----|
---------------x----------|---------------x----------|-------4----2-2-2--2----|
--3----3---3-3---3--3---3-|--3----3---3-3---3--3--3--|--3----2----0-0-0--0----|


  Q    Q    S S E  Q       Q    Q    S S E  Q       Q    Q     
--2----0----2-2-2--2----|--3----2----0-0-0--0----|--2----0----|
--2----2----3-3-3--3----|--3----2----0-0-0--0----|--2----2----|
--2----2----2-2-2--2----|--0----2----0-0-0--0----|--2----2----|
--4----2----0-0-0--0----|--0----4----2-2-2--2----|--4----2----|
--4----0----------------|-------4----2-2-2--2----|--4----0----|
--2---------------------|--3----2----0-0-0--0----|--2---------|


  E  E  S S E  H           Q    E.  S S S E  Q       Q    E.  S S S E  Q     
--2--2--L-2-2--2--------|--2----2---2-2---2--2----|--2----2---2-2---2--2----|
--3--3--L-3-3--3--------|--3----3---3-3---3--3----|--3----3---3-3---3--3----|
--2--2--L-2-2--2--------|--2----2---2-2---2--2----|--2----2---2-2---2--2----|
--0--0--L-0-0--0--------|--0----0---0-0---0--0----|--0----0---0-0---0--0----|
------------------------|-------------------------|-------------------------|
------------------------|-------------------------|-------------------------|


  Q    E.  S E  E  E.  S    Q    E.  S E  E  E  E     Q    E.  S S S E  E.  S  
--2----2---2-2--2--2---2-|--2----2---2-2--2--2--2--|--2----2---2-2---2--2---2-|
--0----0---0-0--0--0---0-|--0----0---0-0--0--0--0--|--3----3---3-3---3--3---3-|
--0----0---0-0--0--0---0-|--0----0---0-0--0--0--0--|--2----2---2-2---2--2---2-|
--0----0---0-0--0--0---0-|--0----0---0-0--0--0--0--|--0----0---0-0---0--0---0-|
-------------------------|-------------------------|--------------------------|
--3----3---3-3--3--3---3-|--3----3---3-3--3--3--3--|--------------------------|


  Q    E.  S S S E  E  E     Q    E.  S S S E  E.  S  
--2----2---2-2---2--2--2--|--2----2---2-2---2--2---2-|
--3----3---3-3---3--3--3--|--0----0---0-0-x-0--0---0-|
--2----2---2-2---2--2--2--|--0----0---0-0-x-0--0---0-|
--0----0---0-0---0--0--0--|--0----0---0-0-x-0--0---0-|
--------------------------|---------------x----------|
--------------------------|--3----3---3-3---3--3---3-|


  Q    E.  S S S E  E  E     Q    Q    S S E  Q       Q    Q    S S E  Q     
--2----2---2-2---2--2--2--|--3----2----0-0-0--0----|--2----0----2-2-2--2----|
--0----0---0-0-x-0--0--0--|--3----2----0-0-0--0----|--2----2----3-3-3--3----|
--0----0---0-0-x-0--0--0--|--0----2----0-0-0--0----|--2----2----2-2-2--2----|
--0----0---0-0-x-0--0--0--|--0----4----2-2-2--2----|--4----2----0-0-0--0----|
---------------x----------|-------4----2-2-2--2----|--4----0----------------|
--3----3---3-3---3--3--3--|--3----2----0-0-0--0----|--2---------------------|


  Q    Q    S S E  Q       Q    Q       E  E  S S E  Q    Q     
--3----2----0-0-0--0----|--2----0----|--2--2--L-2-2--2---------|
--3----2----0-0-0--0----|--2----2----|--3--3--L-3-3--3---------|
--0----2----0-0-0--0----|--2----2----|--2--2--L-2-2--2---------|
--0----4----2-2-2--2----|--4----2----|--0--0--L-0-0--0---------|
-------4----2-2-2--2----|--4----0----|-------------------------|
--3----2----0-0-0--0----|--2---------|-------------------------|


  E  S S E  S S S S E  E  S S    S S S S E  S S S S E  E  S S  
--2--2-2-2--2-2-2-2-2--2--2-2-|--2-2-2-2-2--2-2-2-2-2--2--2-2-|
--0--0-0-0--0-0-0-0-0--0--0-0-|--3-3-3-3-3--3-3-3-3-3--3--3-3-|
--0--0-0-0--0-0-0-0-0--0--0-0-|--4-4-4-4-4--4-4-4-4-4--4--4-4-|
--0--0-0-0--0-0-0-0-0--0--0-0-|--5-5-5-5-5--5-5-5-5-5--5--5-5-|
------------------------------|-------------------------------|
--3--3-3-3--3-3-3-3-3--3--3-3-|-------------------------------|


  S S S S E  S S E  E  E  S S    Q    S E  S S S E  S S S S  
--2-2-2-2-2--2-2-2--2--2--2-2-|--2----2-2--2-2-2-2--2-2-2-2-|
--3-3-3-3-3--3-3-3--3--3--3-3-|--3----3-3--3-3-3-3--3-3-3-3-|
--2-2-2-2-2--2-2-2--2--2--2-2-|--2----2-2--2-2-2-2--2-2-2-2-|
--0-0-0-0-0--0-0-0--0--0--0-0-|--0----0-0--0-0-0-0--0-0-0-0-|
------------------------------|-----------------------------|
------------------------------|-----------------------------|


  E  S S E  S S S S E  E  S S    S S S S E  S S S S S S E  S S  
--2--2-2-2--2-2-2-2-2--2--2-2-|--2-2-2-2-2--2-2-2-2-2-2-2--2-2-|
--0--0-0-0--0-0-0-0-0--0--0-0-|--3-3-3-3-3--3-3-3-3-3-3-3--3-3-|
--0--0-0-0--0-0-0-0-0--0--0-0-|--4-4-4-4-4--4-4-4-4-4-4-4--4-4-|
--0--0-0-0--0-0-0-0-0--0--0-0-|--5-5-5-5-5--5-5-5-5-5-5-5--5-5-|
------------------------------|--------------------------------|
--3--3-3-3--3-3-3-3-3--3--3-3-|--------------------------------|


  S S S S E  S S S S S S E  S S    S S S S E  S S S S S S E  S S  
--2-2-2-2-2--2-2-2-2-2-2-2--2-2-|--2-2-2-2-2--2-2-2-2-2-2-2--2-2-|
--3-3-3-3-3--3-3-3-3-3-3-3--3-3-|--3-3-3-3-3--3-3-3-3-3-3-3--3-3-|
--2-2-2-2-2--2-2-2-2-2-2-2--2-2-|--2-2-2-2-2--2-2-2-2-2-2-2--2-2-|
--0-0-0-0-0--0-0-0-0-0-0-0--0-0-|--0-0-0-0-0--0-0-0-0-0-0-0--0-0-|
--------------------------------|--------------------------------|
--------------------------------|--------------------------------|


  S S S S E  S S S S E  E  S S    S S S S S S S S S S E  Q     
--2-2-2-2-2--2-2-2-2-2--2--2-2-|--2-2-2-2-2-2-2-2-2-2-2--2----|
--0-0-0-0-0--0-0-0-0-0--0--0-0-|--0-0-0-0-0-0-0-0-0-0-0--0----|
--0-0-0-0-0--0-0-0-0-0--0--0-0-|--0-0-0-0-0-0-0-0-0-0-0--0----|
--0-0-0-0-0--0-0-0-0-0--0--0-0-|--0-0-0-0-0-0-0-0-0-0-0--0----|
-------------------------------|------------------------------|
--3-3-3-3-3--3-3-3-3-3--3--3-3-|--3-3-3-3-3-3-3-3-3-3-3--3----|


  W                   W                   E  S S E  S S S S E  E  S S  
--2----------------|--2----------------|--2--2-2-2--2-2-2-2-2--2--2-2-|
--3----------------|--3----------------|--0--0-0-0--0-0-0-0-0--0--0-0-|
--2----------------|--2----------------|--0--0-0-0--0-0-0-0-0--0--0-0-|
--0----------------|--0----------------|--0--0-0-0--0-0-0-0-0--0--0-0-|
-------------------|-------------------|------------------------------|
-------------------|-------------------|--3--3-3-3--3-3-3-3-3--3--3-3-|


  E  S S E  S S S S E  E  S S    E  S S E  S S S S E  E  S S  
--2--2-2-2--2-2-2-2-2--2--2-2-|--2--2-2-2--2-2-2-2-2--2--2-2-|
--0--0-0-0--0-0-0-0-0--0--0-0-|--3--3-3-3--3-3-3-3-3--3--3-3-|
--0--0-0-0--0-0-0-0-0--0--0-0-|--2--2-2-2--2-2-2-2-2--2--2-2-|
--0--0-0-0--0-0-0-0-0--0--0-0-|--0--0-0-0--0-0-0-0-0--0--0-0-|
------------------------------|------------------------------|
--3--3-3-3--3-3-3-3-3--3--3-3-|------------------------------|


  E  S S E  S S S S E  E  S S    E  E  E  S S S S E  E  S S  
--2--2-2-2--2-2-2-2-2--2--2-2-|--2--2--2--2-2-2-2-2--2--2-2-|
--3--3-3-3--3-3-3-3-3--3--3-3-|--0--0--0--0-0-0-0-0--0--0-0-|
--2--2-2-2--2-2-2-2-2--2--2-2-|--0--0--0--0-0-0-0-0--0--0-0-|
--0--0-0-0--0-0-0-0-0--0--0-0-|--0--0--0--0-0-0-0-0--0--0-0-|
------------------------------|-----------------------------|
------------------------------|--3--3--3--3-3-3-3-3--3--3-3-|


  E.  S E  S S E  S S E  E     Q    E.  S E  E  E.  S  
--2---2-2--2-2-2--2-2-2--2--|--2----2---2-2-----------|
--0---0-0--0-0-0--0-0-0--0--|--3----3---3-3--3--3---3-|
--0---0-0--0-0-0--0-0-0--0--|--2----2---2-2--2--2---2-|
--0---0-0--0-0-0--0-0-0--0--|--0----0---0-0--5--4---4-|
----------------------------|-------------------------|
--3---3-3--3-3-3--3-3-3--3--|-------------------------|


  Q    E.  S S S E  E  E     Q    E.  S E  E  Q       Q    E.  S S S E  E  E   
--------------------------|--2----2---2-2--2--2----|--2----2---2-2-2-2--2--2--|
--3----3---3-3-3-3--3-----|--0----0---0-0--0--0----|--0----0---0-0-0-0--0--0--|
--2----2---2-2-2-2--2--0--|--0----0---0-0--0--0----|--0----0---0-0-0-0--0--0--|
--4----4---4-4-4-5--4--0--|--0----0---0-0--0--0----|--0----0---0-0-0-0--0--0--|
--------------------------|------------------------|--------------------------|
--------------------------|--3----3---3-3--3--3----|--3----3---3-3-3-3--3--3--|


  Q    E.  S E  E  E.  S    Q    E.  S S S E  E  E   
--2----2---2-2-----------|--------------------------|
--3----3---3-3--3--3---3-|--3----3---3-3-3-3--3-----|
--2----2---2-2--2--2---2-|--2----2---2-2-2-2--2--0--|
--0----0---0-0--5--4---4-|--4----4---4-4-4-5--4--0--|
-------------------------|--------------------------|
-------------------------|--------------------------|


  Q    E.  S S S E  E  S S    Q    E.  S S S E  E  S S  
--2----2---2-2-2-2--2--2-2-|--2----2---2-2-2-2--2--2-2-|
--0----0---0-0-0-0--0--0-0-|--0----0---0-0-0-0--0--0-0-|
--0----0---0-0-0-0--0--0-0-|--0----0---0-0-0-0--0--0-0-|
--0----0---0-0-0-0--0--0-0-|--0----0---0-0-0-0--0--0-0-|
---------------------------|---------------------------|
--3----3---3-3-3-3--3--3-3-|--3----3---3-3-3-3--3--3-3-|


  E  S S E  S S S S E  Q       Q    Q    S S E  E  S S  
--3--3-3-2--2-2-0-0-0--0----|--2----0----2-2-2--2--2-2-|
--3--3-3-2--2-2-0-0-0--0----|--2----2----3-3-3--3--3-3-|
--0--0-0-2--2-2-0-0-0--0----|--2----2----2-2-2--2--2-2-|
--0--0-0-4--4-4-2-2-2--2----|--4----2----0-0-0--0--0-0-|
---------4--4-4-2-2-2--2----|--4----0------------------|
--3--3-3-2--2-2-0-0-0--0----|--2-----------------------|


  E  S S E  S S S S E  Q       Q    Q       E  E.  S E  Q    Q     
--3--3-3-2--2-2-0-0-0--0----|--2----0----|------------------------|
--3--3-3-2--2-2-0-0-0--0----|--2----2----|--3--3---3-3--3---------|
--0--0-0-2--2-2-0-0-0--0----|--2----2----|--2--2---2-2--2---------|
--0--0-0-4--4-4-2-2-2--2----|--4----2----|--4--4---4-5--4---------|
---------4--4-4-2-2-2--2----|--4----0----|------------------------|
--3--3-3-2--2-2-0-0-0--0----|--2---------|------------------------|


  E.  S E  S S S S E  S S S S    Q    E.  S S S E  E  S S  
--2---2-2--2-2-2-2-2--2-2-2-2-|--2----2---2-2-2-2--2--2-2-|
--0---0-0--0-0-0-0-0--0-0-0-0-|--0----0---0-0-0-0--0--0-0-|
--0---0-0--0-0-0-0-0--0-0-0-0-|--0----0---0-0-0-0--0--0-0-|
--0---0-0--0-0-0-0-0--0-0-0-0-|--0----0---0-0-0-0--0--0-0-|
------------------------------|---------------------------|
--3---3-3--3-3-3-3-3--3-3-3-3-|--3----3---3-3-3-3--3--3-3-|


  Q    E.  S S S E  E  S S    E.  S E.  S S S E  E  S S  
--2----2---2-2-2-2--2--2-2-|--2---2-2---2-2-2-2--2--2-2-|
--3----3---3-3-3-3--3--3-3-|--3---3-3---3-3-3-3--3--3-3-|
--2----2---2-2-2-2--2--2-2-|--2---2-2---2-2-2-2--2--2-2-|
--0----0---0-0-0-0--0--0-0-|--0---0-0---0-0-0-0--0--0-0-|
---------------------------|----------------------------|
---------------------------|----------------------------|


  Q    E.  S S S E  E  S S    E.  S E  S S S S E  E  S S  
--2----2---2-2-2-2--2--2-2-|--2---2-2--2-2-2-2-2--2--2-2-|
--0----0---0-0-0-0--0--0-0-|--0---0-0--0-0-0-0-0--0--0-0-|
--0----0---0-0-0-0--0--0-0-|--0---0-0--0-0-0-0-0--0--0-0-|
--0----0---0-0-0-0--0--0-0-|--0---0-0--0-0-0-0-0--0--0-0-|
---------------------------|-----------------------------|
--3----3---3-3-3-3--3--3-3-|--3---3-3--3-3-3-3-3--3--3-3-|


  E  S S E  S S S S E  E  S S    E  S S E  S S S S E  E  S S  
--2--2-2-2--2-2-2-2-2--2--2-2-|--2--2-2-2--2-2-2-2-2--2--2-2-|
--3--3-3-3--3-3-3-3-3--3--3-3-|--3--3-3-3--3-3-3-3-3--3--3-3-|
--2--2-2-2--2-2-2-2-2--2--2-2-|--2--2-2-2--2-2-2-2-2--2--2-2-|
--0--0-0-0--0-0-0-0-0--0--0-0-|--0--0-0-0--0-0-0-0-0--0--0-0-|
------------------------------|------------------------------|
------------------------------|------------------------------|


  E.  S E  S S S S E  E  S S    Q    E.  S S S E  E  S S  
--2---2-2--2-2-2-2-2--2--2-2-|--2----2---2-2-2-2--2--2-2-|
--0---0-0--0-0-0-0-0--0--0-0-|--0----0---0-0-0-0--0--0-0-|
--0---0-0--0-0-0-0-0--0--0-0-|--0----0---0-0-0-0--0--0-0-|
--0---0-0--0-0-0-0-0--0--0-0-|--0----0---0-0-0-0--0--0-0-|
-----------------------------|---------------------------|
--3---3-3--3-3-3-3-3--3--3-3-|--3----3---3-3-3-3--3--3-3-|


  Q    E.  S S S E  E  S S    E.  S E.  S S S E  E  S S  
--2----2---2-2-2-2--2--2-2-|--2---2-2---2-2-2-2--2--2-2-|
--3----3---3-3-3-3--3--3-3-|--3---3-3---3-3-3-3--3--3-3-|
--2----2---2-2-2-2--2--2-2-|--2---2-2---2-2-2-2--2--2-2-|
--0----0---0-0-0-0--0--0-0-|--0---0-0---0-0-0-0--0--0-0-|
---------------------------|----------------------------|
---------------------------|----------------------------|


  Q    E.  S S S E  E  S S    E.  S E  S S S S E  E  S S  
--2----2---2-2-2-2--2--2-2-|--2---2-2--2-2-2-2-2--2--2-2-|
--0----0---0-0-0-0--0--0-0-|--0---0-0--0-0-0-0-0--0--0-0-|
--0----0---0-0-0-0--0--0-0-|--0---0-0--0-0-0-0-0--0--0-0-|
--0----0---0-0-0-0--0--0-0-|--0---0-0--0-0-0-0-0--0--0-0-|
---------------------------|-----------------------------|
--3----3---3-3-3-3--3--3-3-|--3---3-3--3-3-3-3-3--3--3-3-|


  E  S S E  S S S S E  E  S S    E  S S E  S S S S E  E  S S  
--2--2-2-2--2-2-2-2-2--2--2-2-|--2--2-2-2--2-2-2-2-2--2--2-2-|
--3--3-3-3--3-3-3-3-3--3--3-3-|--3--3-3-3--3-3-3-3-3--3--3-3-|
--2--2-2-2--2-2-2-2-2--2--2-2-|--2--2-2-2--2-2-2-2-2--2--2-2-|
--0--0-0-0--0-0-0-0-0--0--0-0-|--0--0-0-0--0-0-0-0-0--0--0-0-|
------------------------------|------------------------------|
------------------------------|------------------------------|


  E.  S E  S S S S E  E  S S    Q    E.  S S S E  E  S S  
--2---2-2--2-2-2-2-2--2--2-2-|--2----2---2-2-2-2--2--2-2-|
--0---0-0--0-0-0-0-0--0--0-0-|--0----0---0-0-0-0--0--0-0-|
--0---0-0--0-0-0-0-0--0--0-0-|--0----0---0-0-0-0--0--0-0-|
--0---0-0--0-0-0-0-0--0--0-0-|--0----0---0-0-0-0--0--0-0-|
-----------------------------|---------------------------|
--3---3-3--3-3-3-3-3--3--3-3-|--3----3---3-3-3-3--3--3-3-|


  E  S S E  S S S S E  E  S S    E  S S E  S S S S E  E  S S  
--2--2-2-2--2-2-2-2-2--2--2-2-|--2--2-2-2--2-2-2-2-2--2--2-2-|
--3--3-3-3--3-3-3-3-3--3--3-3-|--3--3-3-3--3-3-3-3-3--3--3-3-|
--2--2-2-2--2-2-2-2-2--2--2-2-|--2--2-2-2--2-2-2-2-2--2--2-2-|
--0--0-0-0--0-0-0-0-0--0--0-0-|--0--0-0-0--0-0-0-0-0--0--0-0-|
------------------------------|------------------------------|
------------------------------|------------------------------|


  E.  S E  S S S S E  E  S S    Q    E.  S S S E  E  S S  
--2---2-2--2-2-2-2-2--2--2-2-|--2----2---2-2-2-2--2--2-2-|
--0---0-0--0-0-0-0-0--0--0-0-|--0----0---0-0-0-0--0--0-0-|
--0---0-0--0-0-0-0-0--0--0-0-|--0----0---0-0-0-0--0--0-0-|
--0---0-0--0-0-0-0-0--0--0-0-|--0----0---0-0-0-0--0--0-0-|
-----------------------------|---------------------------|
--3---3-3--3-3-3-3-3--3--3-3-|--3----3---3-3-3-3--3--3-3-|


  E  S S E  S S S S E  E  S S    E  S S E  S S S S E  E  S S  
--2--2-2-2--2-2-2-2-2--2--2-2-|--2--2-2-2--2-2-2-2-2--2--2-2-|
--3--3-3-3--3-3-3-3-3--3--3-3-|--3--3-3-3--3-3-3-3-3--3--3-3-|
--2--2-2-2--2-2-2-2-2--2--2-2-|--2--2-2-2--2-2-2-2-2--2--2-2-|
--0--0-0-0--0-0-0-0-0--0--0-0-|--0--0-0-0--0-0-0-0-0--0--0-0-|
------------------------------|------------------------------|
------------------------------|------------------------------|


  E.  S E  S S S S E  E  S S    Q    E.  S S S E  E  S S  
--2---2-2--2-2-2-2-2--2--2-2-|--2----2---2-2-2-2--2--2-2-|
--0---0-0--0-0-0-0-0--0--0-0-|--0----0---0-0-0-0--0--0-0-|
--0---0-0--0-0-0-0-0--0--0-0-|--0----0---0-0-0-0--0--0-0-|
--0---0-0--0-0-0-0-0--0--0-0-|--0----0---0-0-0-0--0--0-0-|
-----------------------------|---------------------------|
--3---3-3--3-3-3-3-3--3--3-3-|--3----3---3-3-3-3--3--3-3-|


  E  S S E  S S S S E  E  S S    E.  S S E.  S S E  E  S S  
--2--2-2-2--2-2-2-2-2--2--2-2-|--2---2-2-2---2-2-2--2--2-2-|
--3--3-3-3--3-3-3-3-3--3--3-3-|--3---3-3-3---3-3-3--3--3-3-|
--2--2-2-2--2-2-2-2-2--2--2-2-|--2---2-2-2---2-2-2--2--2-2-|
--0--0-0-0--0-0-0-0-0--0--0-0-|--0---0-0-0---0-0-0--0--0-0-|
------------------------------|----------------------------|
------------------------------|----------------------------|


  Q    E.  S S S E  E  S S    E.  S E  S S S S E  E  S S  
--2----2---2-2-2-2--2--2-2-|--2---2-2--2-2-2-2-2--2--2-2-|
--0----0---0-0-0-0--0--0-0-|--0---0-0--0-0-0-0-0--0--0-0-|
--0----0---0-0-0-0--0--0-0-|--0---0-0--0-0-0-0-0--0--0-0-|
--0----0---0-0-0-0--0--0-0-|--0---0-0--0-0-0-0-0--0--0-0-|
---------------------------|-----------------------------|
--3----3---3-3-3-3--3--3-3-|--3---3-3--3-3-3-3-3--3--3-3-|


  E  S S E  S S S S E  E  S S    E  S S E  S S S S E  E  S S  
--2--2-2-2--2-2-2-2-2--2--2-2-|--2--2-2-2--2-2-2-2-2--2--2-2-|
--3--3-3-3--3-3-3-3-3--3--3-3-|--3--3-3-3--3-3-3-3-3--3--3-3-|
--2--2-2-2--2-2-2-2-2--2--2-2-|--2--2-2-2--2-2-2-2-2--2--2-2-|
--0--0-0-0--0-0-0-0-0--0--0-0-|--0--0-0-0--0-0-0-0-0--0--0-0-|
------------------------------|------------------------------|
------------------------------|------------------------------|


  E.  S E  S S S S E  S S S S    Q    E.  S S S E  E  S S  
--2---2-2--2-2-2-2-2--2-2-2-2-|--2----2---2-2-2-2--2--2-2-|
--0---0-0--0-0-0-0-0--0-0-0-0-|--0----0---0-0-0-0--0--0-0-|
--0---0-0--0-0-0-0-0--0-0-0-0-|--0----0---0-0-0-0--0--0-0-|
--0---0-0--0-0-0-0-0--0-0-0-0-|--0----0---0-0-0-0--0--0-0-|
------------------------------|---------------------------|
--3---3-3--3-3-3-3-3--3-3-3-3-|--3----3---3-3-3-3--3--3-3-|


  Q    E.  S S S E  E  S S    E  S S E  S S S S E  E  S S   
--2----2---2-2-2-2--2--2-2-|--2--2-2-2--2-2-2-2-2--2--2-2-||
--3----3---3-3-3-3--3--3-3-|--3--3-3-3--3-3-3-3-3--3--3-3-||
--2----2---2-2-2-2--2--2-2-|--2--2-2-2--2-2-2-2-2--2--2-2-||
--0----0---0---0-0--0--0-0-|--0--0-0-0--0-0-0-0-0--0--0-0-||
---------------------------|------------------------------||
---------------------------|------------------------------||




=============================================================================

                                                               
Guitar 2 (electric)



     Q    E.  S S S E  S  E.     Q    E.  S S S E  E  E     W                 
E||--5----5---5-3-2----2s-3---|--2----2---3-2------------|-------------------|
B||-----------------3---------|---------------3----------|-------------------|
G||---------------------------|-----------------4--2--2--|--4----------------|
D||---------------------------|--------------------------|-------------------|
A||---------------------------|--------------------------|-------------------|
E||---------------------------|--------------------------|-------------------|


          Q    E.  S S S E  S  E.     Q    E.  S S S E  E  E   
-------|--5----5---5-3-2----2s-3---|--2----2---3-2------------|
-------|-----------------3---------|---------------3----------|
-------|---------------------------|-----------------4--2--2--|
-------|---------------------------|--------------------------|
-------|---------------------------|--------------------------|
-------|---------------------------|--------------------------|


                      ^                                           
  W                   W                   Q    E.  S S S E  Q     
-------------------|--2----------------|--2----2-----------------|
-------------------|--3----------------|--3----3---x-x-x-0-------|
--4----------------|--4----------------|--2----2---x-x-x-0--2----|
-------------------|-------------------|--0----0---x-x-x----4----|
-------------------|-------------------|-------------------------|
-------------------|-------------------|-------------------------|


  Q    E.  S S S E  E  E     W                   H        Q    Q     
-------2---x-x------------|-------------------|--2--------0---------|
-------3---x-x---0--3-----|--3----------------|--3--------3----3----|
--2----2---2-2---0--2--0--|--0----------------|--4--------0----0----|
--0----0---0-0------4--0--|--0----------------|----------------0----|
--------------------------|--2----------------|---------------------|
--------------------------|-------------------|---------------------|


  H        S S E  Q       Q    E.  S S S E  E  E     H.           E  S S  
-----------------------|--2----2---2-2---2--2--2--|----------------------|
--3--------x-x---------|--3----3---3-3---3--3--3--|--3------------L--3---|
--2--------x-x-4--2----|--2----2---2-2---2--2--2--|--0------------L--0---|
--0--------0-0-5--4----|--0----0---0-0---0--0--0--|--0------------L--0-2-|
-----------------------|--------------------------|--2------------L------|
-----------------------|--------------------------|----------------------|


  Q    S E.  Q.     E     E  S S E  S S E  E  Q     
-----------------------|----------------------0----|
--3----------3---------|----------------------0----|
--0----0-----0------0--|-----x-x------2-------0----|
--0----0-----0------0--|--5--x-x-4---------0-------|
---------2-------------|--5--x-x-4--x---2--2-------|
-----------------------|--3--3-3-2--x---0----------|


  E  S S E  S S S S S S E  E     E  S S E  S S E  E  Q       E  S S E  S S  
------------------------------|----------------------0----|----------------|
----------------3-3---L-3-----|----------------------0----|----------------|
---------2--x-x-2-2---L-2--0--|-----x-x--------------0----|---------2--x-x-|
--4--x-x-2--2-2-0-0-2-4-2--0--|--5--x-x-4---------0-------|--4--x-x-2--2-2-|
--4--4-4-0--x-x---------------|--5--x-x-4--x-x----2-------|--4--4-4-0--x-x-|
--2--x-x----------------------|--3--3-3-2--x-x-0----------|--2--x-x--------|


  E  S S S S E  S E  E.  E     Q    Q    S S E  E.  S  
----------------------------|-------------------------|
-----3-----3-3--3----L---3--|-------3----x-x-0------2-|
--2--2-----2-2--2----L------|--2----2----x-x-0--2-----|
--0--2-4---0-2--2-4--L------|--0----0----0-0----4-----|
----------------------------|-------------------------|
----------------------------|-------------------------|


  Q    Q    S S E  E  E     W                   H        S  S E  S  E  S  
----------------3--2-----|--0----------------|---------------------------|
-------3----x-x-3--3-----|--3----------------|-----------3----3----------|
--2----2----x-x-2--2-----|--0----------------|-----------0----0----------|
--0----0----0-0-0--0--0--|--0----------------|-----------0h-2-0--0--L--0-|
----------------------0--|--2----------------|-------------------0h-2----|
-------------------------|-------------------|---------------------------|


  Q    Q    S S E  E.  S    Q    Q    S S E  E  E     H.           E  S S  
-------2-----------------|-------2----x-x----------|----------------------|
-------3----x-x----------|--3----3----x-x-0--3-----|--3------------L--3---|
-------2----x-x-4--2---x-|--2----2----2-2-0--2-----|--0------------L--0---|
--0----0----0-0-5--4---x-|--0----0----0-0----4--0--|--0------------L--0-2-|
--0----------------------|----------------------0--|--2------------L------|
-------------------------|-------------------------|----------------------|


  Q    S E.  S S  S S S  S E     E  S S E  S S E  E  Q     
------------------------------|----------------------0----|
--3----3-----3------3------3--|----------------------0----|
--0----0-----0------0------0--|-----x-x------2-------0----|
-------0-----0------0------0--|--5--x-x-4---------0-------|
-------0-2-----0h-2---0h-2----|--5--x-x-4--x---2--2-------|
------------------------------|--3--3-3-2--x---0----------|


  E  S S E  S S S S S S E  E     E  S S E  S S E  E  Q       E  S S E  S S  
------------------------------|----------------------0----|----------------|
----------------3-3---L-3-----|----------------------0----|----------------|
---------2--x-x-2-2---L-2--0--|-----x-x--------------0----|---------2--x-x-|
--4--x-x-2--2-2-0-0-2-4-2--0--|--5--x-x-4---------0-------|--4--x-x-2--2-2-|
--4--4-4-0--x-x---------------|--5--x-x-4--x-x----2-------|--4--4-4-0--x-x-|
--2--x-x----------------------|--3--3-3-2--x-x-0----------|--2--x-x--------|


  E  S S S S E  S E  E.  E     W                   H.           E  E   
----------------------------|--2----------------|--2------------0--x--|
-----3-----3-3--3----L---3--|--3----------------|--3------------3--3--|
--2--2-----2-2--2----L------|--4----------------|--4------------2--x--|
--0--2-4---0-2--2-4--L------|--5----------------|--5------------0--x--|
----------------------------|-------------------|---------------------|
----------------------------|-------------------|---------------------|


    W                   S  E.  E.   S S  S E  E  S S    S  H        E.  E  S S  
---------------------|-------------------------------|-------------------------|
----3----------------|--3--L---3----L-3--L-3---------|--3-----------L---3------|
----2----------------|--0--L---0----L-0--L-0--0--0---|--0-----------L---0--0-0-|
--2g4----------------|--2h-4---2p---0-2h-4-2--0--0-2-|--0-----------L---0--0-0-|
---------------------|-------------------------------|--0h-2--------L---2------|
---------------------|-------------------------------|-------------------------|


  H.           E.  S    W                   S  E.  E.   S S  S E  E  S S  
--2------------------|-------------------|-------------------------------|
--3------------------|-------------------|--3--L---3----L-3--L-3---------|
--0------------0---0-|-------------------|--0--L---0----L-0--L-0--0--0---|
--0------------0---0-|--0----------------|--2h-4---2p---0-2h-4-2--0--0-2-|
--2------------------|--0----------------|-------------------------------|
---------------------|-------------------|-------------------------------|


  S  H        E.  E  S S    H.           Q       Q    E.  S S S E  S  E.   
-------------------------|--------------------|--5----5---5-3-2----2s-3---|
--3-----------L---3------|--3-----------------|-----------------3---------|
--0-----------L---0--0-0-|--0------------0----|---------------------------|
--0-----------L---0--0-0-|--0------------0----|---------------------------|
--0h-2--------L---2------|--2------------2----|---------------------------|
-------------------------|--------------------|---------------------------|


  Q    E.  S S S E  E  E     H.           E  S  S    H.           S E   S  
--2----2---3-2------------|-----------------------|-----------------------|
---------------3----------|-----------------------|-----------------------|
-----------------4--2--2--|--0------------0--0--L-|--0------------2-4p--2-|
--------------------------|--0------------0--0h-2-|--0--------------------|
--------------------------|-----------------------|-----------------------|
--------------------------|-----------------------|-----------------------|


  H.           E.  S    S  E.  Q    Q    S  E.     H.           S  E.   
---------------------|--------------------------|----------------------|
--3------------3---3-|--3--L---3----3----3--L---|--3------------3--L---|
--2------------2---2-|--2--L---2----0----0--L---|--0------------0--L---|
--4------------2---2-|--2h-4---2----0----0h-2---|--0------------0h-2---|
---------------------|--------------------------|--2-------------------|
---------------------|--------------------------|----------------------|


  Q.     E  S S Q.                                    
-----------------------|---------|-------------------|
--3------3--3----------|---------|-------------------|
--0------0--0----------|---------|-------------------|
--0------0--0----------|---------|-------------------|
--2------2--2----------|---------|-------------------|
-----------------------|---------|-------------------|


  E  E  E  E  E  E  E  E     E  E  E  E  E  E  E  E     Q    H.            
--------------------------|--------------------------|--------------------|
--------0--------0--------|--0--------0--------0-----|-------3------------|
-----0--------0--------0--|--------0--------0--------|--2----2------------|
--5-----L--4-----L--2-----|--L--0--------------------|--0----0------------|
--------------------------|--------------2--------2--|--0-----------------|
--------------------------|--------------------------|--------------------|


                                                 NH   NH     NH     NH    NH    
  Q    H        S  E.     W                      E    Q      Q      E     Q     
-----------------------|-------------------|-----------------------------------|
-------3---------------|--3----------------|--<>12--<>7----<>5---------<>12----|
--2----2--------0--L---|--0----------------|--<>12--<>7----<>5----<>7--<>12----|
--0-------------0h-2---|--0----------------|--<>12--<>7----<>5----<>7--<>12----|
-----------------------|--2----------------|-----------------------------------|
-----------------------|-------------------|-----------------------------------|


  E  S S E  S S E  E  Q       E  S S E  S S S S  S  S E  E   
----------------------0----|--------------------------------|
----------------------0----|----------------3-3-----L-3-----|
-----x-x------2-------0----|---------2--x-x-2-2-----L-2--0--|
--5--x-x-4---------0-------|--4--x-x-2--2-2-0-0h-2h-4-2--0--|
--5--x-x-4--x---2--2-------|--4--4-4-0--x-x-----------------|
--3--3-3-2--x---0----------|--2--x-x------------------------|


  E  S S E  S S E  E  Q       E  S S E  S S    E  S S S S E  S E  E.  E   
----------------------0----|----------------|----------------------------|
----------------------0----|----------------|-----3-L---3-3--3----L---3--|
-----x-x------2-------0----|---------2--x-x-|--2--2-L---2-2--2----L------|
--5--x-x-4---------0-------|--4--x-x-2--2-2-|--0--2-4---0-2--2-4--L------|
--5--x-x-4--x---2--2-------|--4--4-4-0--x-x-|----------------------------|
--3--3-3-2--x---0----------|--2--x-x--------|----------------------------|


  W                   H        Q    Q         W                 
--2----------------|--2--------0---------|---------------------|
--3----------------|--3--------3----3----|----3----------------|
--0----------------|--0--------0----0----|----2----------------|
--0----------------|--0------------------|--2g4----------------|
--2----------------|--2------------------|---------------------|
-------------------|---------------------|---------------------|


  S  E.  E.   S S  S E  E  E     H.           S  S E   
------------------------------|-----------------------|
--3--L---3----L-3--L-3--------|--3-----------------3--|
--0--L---0----L-0--L-0--2--2--|--0------------0--L-0--|
--2h-4---2p---0-2h-4-2--0--2--|--0------------0h-2-L--|
------------------------------|--2--------------------|
------------------------------|-----------------------|


  S  S E  S  S E  Q    Q       W                   S  E.  Q    S  S E  E  E   
----------------------------|-------------------|----------------------------|
----------------------------|--3----------------|--3--L---3----3--L-3--------|
-------0-------0--L---------|--2----------------|--2--L---2----2--L-2--2--2--|
--0--L-0--0--L-0--L----0----|--0----------------|--2h-4---2----2h-4-2--0--2--|
--0h-2----0h-2----2----0----|--0----------------|----------------------------|
----------------------------|-------------------|----------------------------|


  W                   S  Q.     S Q    Q       W                 
-------------------|------------------------|-------------------|
--3----------------|------------------------|-------------------|
--0----------------|--------------0---------|--2----------------|
--0----------------|--0--L------L-0----0----|--0----------------|
--2----------------|--0h-2------L------2----|--0----------------|
-------------------|------------------------|-------------------|


  S  E.  Q    S  S E  E  E     S  E  S S S  E  H         
----------------------------|---------------------------|
--3--L---3----3--L-3--------|------------------3--------|
--2--L---2----2--L-2--0--0--|--------0---------0--------|
--2h-4---2----2h-4-2--0--2--|--0--L--0---0--L--0--------|
----------------------------|--0h-2------0h-2-----------|
----------------------------|---------------------------|


  S  E  S S S  E  Q    S  E  S    W                 
-------------------------------|-------------------|
-------------------------------|-------------------|
--------0---------0------------|--2----------------|
--0--L--0---0--L--0----0-------|--0----------------|
--0h-2------0h-2-------0h-2--0-|--0----------------|
-------------------------------|-------------------|


  S  S S S S S S E.  S E.  E     E  E  E  Q.     Q     
------------------------------|-----------------------|
------------------------------|--0--------0------0----|
-------2---2-2-2-----------0--|-----0-----0------0----|
--0----0---x-x-0-----0-----0--|--------0--0------0----|
--0h-2-----x-x-------0-2------|-----------------------|
------------------------------|-----------------------|


  Q.      E  Q    S  E.     Q.     E  Q    E  E     H        Q    Q     
-------------------------|-----------------------|---------------------|
--0-------L--0-------L---|-----------------------|---------------------|
--0-------L--0-------L---|--2------2--2----x--2--|--2--------2----0----|
--0-------L--0-------L---|--0------0--0----x--0--|--2--------2----0----|
--5p------4--2----2h-4---|--0------0--0----0--0--|---------------------|
-------------------------|-----------------------|---------------------|


  Q.     Q.     Q        E  E  Q    S  E.  S  E.     H.           S  E.   
---------------------|----------------------------|----------------------|
--0------0------0----|---0--------------------L---|----------------------|
--0------0------0----|---0--------------------L---|----------------------|
--0------0------0----|---0--------------------L---|--0------------0--L---|
---------------------|---9--7--5----5s-7---5s-7---|--0------------0h-2---|
---------------------|--10--9--7----7s-9---7s-9---|----------------------|


  E  S  E.  E  S  S E  S  S E     Q.     E  Q    E.  S  
-------------------------------|---------------------0-|
-------------------------------|---------------------0-|
------------2-------2--2----2--|---------0--0----L-----|
-----0--L---0--0--L-0--0h-2-0--|--0------0--0----L-----|
--0--0h-2------0h-2------------|--2--------------------|
-------------------------------|-----------------------|


                   NH   NH   NH                              
  S  E.  S S E     E    E    E.  S    Q    S  E.  Q    Q     
-----------0---------------------0-|------------------------|
-------------0--<>12--<>7--<>5---0-|------------------------|
-------------0--<>12--<>7--<>5-----|-------2------L---------|
--0--L-------0--<>12--<>7--<>5-----|--0----2h-4---L----0----|
--0h-2-----------------------------|--0----------------0----|
-----------------------------------|------------------------|


  Q    E.  S S  S E  E  S S    H        E.  S Q     
-----------0----------------|----------------------|
----------------------------|--3--------L---3------|
-------------2--L-2--0--0---|--0--------L-----0----|
-------------2h-4-2--0--0-2-|--0--------L-----0----|
--0----0--------------------|--2--------L----------|
--2----2--------------------|----------------------|


  S  E.  E.  S S  E  S S S S S    H        E.  S Q     
-------------------------------|----------------------|
-------------3-------3-3---3-3-|---------------3-0----|
---------------0--L------0-----|-----------------0----|
--0------L-----0h-2--L---0-----|--0--------L----------|
--0h-2---L---------------------|--0--------L----------|
-------------------------------|----------------------|


  S  S E.  S S S E  S S E  E     Q.     E  Q    E  S S  
-----------0------------------|------------------------|
-----------3--------3---------|--3------3--3----3--3-3-|
-------2---------2---------0--|--0------0--0----0--0-0-|
--0----0---------0----0----0--|--0------0--0----0--0-0-|
--0h-2-------0-2------0-2-----|--2------2--2----2--2-2-|
------------------------------|------------------------|


     NH   NH     NH   NH   NH    NH                                
     E    Q      E    E    E     Q       Q.     E  S S S S S E  S  
---------------<>5--------------------|---------------------------|
--<>12--<>7----<>5-------<>5--<>12----|--3------3--L-3------------|
--<>12--<>7----<>5--<>7--<>5--<>12----|--2------2--L-2-----2-2--2-|
--<>12--<>7---------<>7--<>5--<>12----|--0------0--L-0-0---0-0--0-|
--------------------------------------|----------------0-2-0-0--0-|
--------------------------------------|---------------------------|


  S  S S S  S S S  S S S  S S S S E    
-------------------------------------||
-------3------3------3------3-----3--||
-------2------2------2------2-----2--||
--0----0-0----0-0----0-0----0-0---0--||
--0h-2---0h-2---0h-2---0h-2---0-2----||
-------------------------------------||


=============================================================================


Guitar 3 (harmony)



      Q     E.   S  S  S  E   S   E.      Q     E.   S  S  S  E   E   E   
E||--14----14---14-12--------10s-12---|--10----10---12-10----------------|
B||-------------------15-12-----------|-------------------12-10------10--|
G||-----------------------------------|--------------------------11------|
D||-----------------------------------|----------------------------------|
A||-----------------------------------|----------------------------------|
E||-----------------------------------|----------------------------------|


   W                          Q     E.   S  S  S  E   S   E.   
--------------------|-----|--14----14---14-12--------10s-12---|
--------------------|-----|-------------------15-12-----------|
--12----------------|-----|-----------------------------------|
--------------------|-----|-----------------------------------|
--------------------|-----|-----------------------------------|
--------------------|-----|-----------------------------------|


   Q     E.   S  S  S  E   E   E      W                                         
--10----10---12-10----------------|--------------------|-----|-----|-----|-----|
-------------------12-10------10--|--------------------|-----|-----|-----|-----|
--------------------------11------|--12----------------|-----|-----|-----|-----|
----------------------------------|--------------------|-----|-----|-----|-----|
----------------------------------|--------------------|-----|-----|-----|-----|
----------------------------------|--------------------|-----|-----|-----|-----|


=============================================================================


Guitar 4 (harmony)



     Q    E.  S S S E  S  E.     Q    E.  S S S E  E  E     W                 
E||---------------------------|--------------------------|-------------------|
B||--3----3---3-1-------------|--------------------------|-------------------|
G||---------------2----2s-4---|--2----2---4-2------------|-------------------|
D||-----------------4---------|---------------4-2-----2--|-------------------|
A||---------------------------|--------------------5-----|--5----------------|
E||---------------------------|--------------------------|-------------------|


          Q    E.  S S S E  S  E.     Q    E.  S S S E  E  E   
-------|---------------------------|--------------------------|
-------|--3----3---3-1-------------|--------------------------|
-------|---------------2----2s-4---|--2----2---4-2------------|
-------|-----------------4---------|---------------4-2-----2--|
-------|---------------------------|--------------------5-----|
-------|---------------------------|--------------------------|


  W                   H.           S S S S    S H        Q.     S          
-------------------|-----------------------|----------------------|-------|
-------------------|-----------------------|----------------------|-------|
-------------------|-----------------------|----------------------|-------|
-------------------|-------------------2---|--2-4--------L--------|-------|
--5----------------|-----------------5---5-|----------------------|-------|
-------------------|-----------------------|----------------------|-------|



=============================================================================


Guitar 5 (solo)



E||-------|-------|-------|-------|-------|-------|-------|-------|-------|
B||-------|-------|-------|-------|-------|-------|-------|-------|-------|
G||-------|-------|-------|-------|-------|-------|-------|-------|-------|
D||-------|-------|-------|-------|-------|-------|-------|-------|-------|
A||-------|-------|-------|-------|-------|-------|-------|-------|-------|
E||-------|-------|-------|-------|-------|-------|-------|-------|-------|



                                                  H        E  E    E   E   
-------|-------|-------|-------|-------|-------|--------------------------|
-------|-------|-------|-------|-------|-------|----------------------15--|
-------|-------|-------|-------|-------|-------|--------------7s--16------|
-------|-------|-------|-------|-------|-------|--------------------------|
-------|-------|-------|-------|-------|-------|--------------------------|
-------|-------|-------|-------|-------|-------|--------------------------|


   Q      E      E   S  E.   E   E      Q      E      E   S  E.   E   E   
------------------------------------|------------------------------------|
--17b----17pbr--15--17------15--17--|--17b----17pbr--15--17------15--17--|
------------------------------------|------------------------------------|
-----------------------17-----------|-----------------------17-----------|
------------------------------------|------------------------------------|
------------------------------------|------------------------------------|


   E      S  E.  E   E      S  Q     S     Q    S   S S  S S    S E  E  E   
------------17--------------------------|----------10-7--------------------|
--17pbr--15---------17pbr--15-----------|-------9b------10-----------------|
------------------------------14-----L\-|------------------9pbr-7----7-----|
----------------------------------------|-------------------------9-----9--|
----------------------------------------|----------------------------------|
----------------------------------------|----------------------------------|


  E  E  E     E  S S S S E  E     S S  Q    S  S S S S S S S S S    S       
-------------------------------|------------7--------------------|----|----|
---------------------7---------|--7-8-10------10-8-7-------------|----|----|
--7-----9pbr-----7-9-----7-----|---------------------9-7---------|----|----|
-----9--------9--------9----9--|-------------------------9-7-----|----|----|
-------------------------------|-----------------------------9-7-|--7-|----|
-------------------------------|---------------------------------|----|----|





Duration Legend
---------------
W - whole
H - half
Q - quarter
E - 8th
S - 16th
T - 32nd
X - 64th
. - note dotted
|-n-|  - n-tuplets


Tablature Legend
----------------
L - tied note
x - dead note
g - grace note
(n) - ghost note
> - accentuded note
NH - natural harmonic
AH - artificial harmonic
TH - tapped harmonic
SH - semi harmonic
PH - pitch harmonic
h - hammer on
p - pull off
b - bend
br - bendRelease
pb - preBend
pbr - preBendRelease
brb - bendReleaseBend
\n/ - tremolo bar dip
\n - tremolo bar dive
-/n - tremolo bar Release up
/n\ - tremolo bar inverted dip
/n - tremolo bar return
-\n - tremolo bar Release down
S - shift slide
s - legato slide
/ -  slide into from below or out of upwards
\ -  slide into from above or out of downwards
~ - vibrato
W - wide vibrato
tr - trill
TP - tremolo picking
T - tapping
S - slap
P - pop
< - fade in
^ - brush up
v - brush down
Tap to rate this tab
 
# A B C D E F G H I J K L M N O P Q R S T U V W X Y Z