Song name
# A B C D E F G H I J K L M N O P Q R S T U V W X Y Z

Eagles - Get Over It tab

-------------------------------------------------------------------------------
			     Get over it - The Eagles
-------------------------------------------------------------------------------
Tabbed by: Jedman2000J
Email: jedman2000@hotmail.com

Tuning: Standard

I am 99% SURE that this is correct, if not 100%! 
This is an easy intro but sounds great if you 
crank up the distortion and reverb. 
This is my first tab. 
Listen to the song to get the timing. 
Enjoy

e|---------------------------------------------------------------------------|
B|-------------6-6--------------6--8--8^----8--6-----------------------------|
G|-------5--7-------7~~-----/7---------------------7--7~~--------------------|
D|---/7----------------------------------------------------------------------|
A|---------------------------------------------------------------------------|
E|---------------------------------------------------------------------------|

e|-----------------------0---------------------------------------------------|
B|--6--------------------2---------------------------------------------------|
G|----7--5---------------3---------------------------------------------------|
D|---------7--5----------0---------------------------------------------------|
A|--------------7--5--0--0---------------------------------------------------|
E|---------------------------------------------------------------------------|

| /  slide up
| \  slide down
| h  hammer-on
| p  pull-off
| ~  vibrato
| +  harmonic
| x  Mute note
| ^  Bend

Tap to rate this tab
# A B C D E F G H I J K L M N O P Q R S T U V W X Y Z