Song name
# A B C D E F G H I J K L M N O P Q R S T U V W X Y Z

Eagles - Life In The Fast Lane Intro tab

Help us improve GuitareTab! Take a short survey!
-##
Received: from animal-farm.nevada.edu by redrock.nevada.edu (5.65c/M1.4)
	with SMTP id ; Mon, 12 Apr 1993 10:34:43 -0700
Received: from cory.Berkeley.EDU by animal-farm.nevada.edu id ; Mon, 12 Apr 1993 10:34:41 -0700
Received: by cory.Berkeley.EDU (5.65/Ultrix3.0-C)
	id AA10821; Mon, 12 Apr 1993 10:34:40 -0700
Date: Mon, 12 Apr 1993 10:34:40 -0700
From: rsn@cory.Berkeley.EDU (Sekhar Narayanaswami)
Message-Id: <9304121734.AA10821@cory.Berkeley.EDU>
To: jamesb@animal-farm.nevada.edu
Subject: TAB: intro to Life in the Fast Lane (Eagles)



Here is what I think the intro to Life in the Fast Lane (by the
Eagles) is:

E---------------------------------------------
B---------------------------------------------
G-----2---0--------------------2---0----------
D-0^2---2---2p0------------0^2---2---2p0------
A---------------0------------------------0----
E-----------------3-0----------------------3--

E----------------------------------------
B----------------------------------------
G-----2---0---------------2---0----------
D-0^2---2---2p0-------0^2---2---2p0------
A---------------0-------------------0----
E-----------------3-0-----------------3--

The difference between the two above riffs is that the first has a break in
it (the big space) and the second is continuous.

Does anyone have the tab for the rest of the song?

Thanks.

-----------------------------------------------------------------
Sekhar Narayanaswami                        rsn@cory.berkeley.edu

"I wanna find myself a girl
Who can show me what laughter means
And we'll fill in the missing colors
In each others paint-by-number dreams"		-- Jackson Browne
-----------------------------------------------------------------
Related for Life In The Fast Lane Intro tab