Guitaretab - guitar tabs
Song name
# A B C D E F G H I J K L M N O P Q R S T U V W X Y Z

Eagles - Please Come Home For Christmas tab

"Please Come Home for Christmas" performed by the Eagles
[ Tab from: http://www.guitaretab.com/e/eagles/5884.html ]
Solo:
----------12b14-12-----------------12---------------------------------------
-----10-12--------12b14r12-10-12b14--12b14r12-10-12b14-------10-12-12b14r12-
-9h11----------------------------------------------------9h11---------------
----------------------------------------------------------------------------
----------------------------------------------------------------------------
---------------------------------------------------------------------------- 

---------------12b14-12-----------------
-10-12b14r12-10--------12b14r12-10------
----------------------------------11\---
----------------------------------------
----------------------------------------
----------------------------------------

Legend:
h- hammer-on
b- bend
r- release bend
\- slide down

Hope it's of some use.

-KEW
Related for Please Come Home For Christmas tab
×
Best way to learn
"Please Come Home For Christmas"