Guitaretab - guitar tabs
Song name
# A B C D E F G H I J K L M N O P Q R S T U V W X Y Z

Eagles - Take It Easy tab

This is how i play the solo in Take it Easy, it's not exact but it sounds good

|-------------------------------------------------|
|-----3-3---3---3-5-3-----------3---------------1-|
|-2/4-----4---4-------4/2-0-2/4---4-2-0-2-0-----0-|
|-------------------------------------------0h2-2-|
|-------------------------------------------------|
|-------------------------------------------------|
[ Tab from: http://www.guitaretab.com/e/eagles/5889.html ]
|-------------------5-----------3-3-3/7-7-7--------------12-12-10-12-10---------|
|-------3-------5/7---7-5-3-3h5-------------8-10-8-10/12----------------12-10-8-|
|-0-2/4---4-2-0-----------------------------------------------------------------|
|-------------------------------------------------------------------------------|
|-------------------------------------------------------------------------------|
|-------------------------------------------------------------------------------|

|------------------10----------------7-8-7------------------------------------10-|
|-----8-10-8-10/12----12-10-8-8-8/10-------10-8--------10/12-12-12-12-12-10-8----|
|-8/9--------------------------------------------8/9-9---------------------------|
|--------------------------------------------------------------------------------|
|--------------------------------------------------------------------------------|
|--------------------------------------------------------------------------------|
Related for Take It Easy tab
Advertisement will be closed in 10 seconds