Guitaretab - guitar tabs
Song name
# A B C D E F G H I J K L M N O P Q R S T U V W X Y Z

Eagles - Journey Of The Sorcerer tab

This is guitar tab for the Hitchhikers Guide to Galaxy theme tune (Journey of the
Sorcerer by The Eagles.) 
Sounds best with Capo on 1 or tuned to f-A-G#-D#-A#-F 
Chords:

   Em    Em7    Em6   Em(?)  Emaj     G

e|-0------0------0-----0-------0-------3-------------|
B|-0------3------2-----1-------0-------0-------------|
G|-0------0------0-----0-------1-------0-------------|
D|-2------2------2-----2-------2-------0-------------|
A|-2------2------2-----2-------2-------2-------------|
E|-0------0------0-----0-------0-------3-------------|

     Em                    Em7

e|--------5h3----2h0----------5h3--0h2-3h0---------|
B|-5...------------------3...-----------------------|
G|--------------------------------------------------|
D|--------------------------------------------------|
A|--------------------------------------------------|
E|--------------------------------------------------|

    Em6                     Em(?) 
[ Tab from: http://www.guitaretab.com/e/eagles/61397.html ]
e|-------5h3----2h0----------------5h33/7^---------| x2
B|-2...----------------------1...-------------------|
G|--------------------------------------------------|
D|--------------------------------------------------|
A|--------------------------------------------------|
E|--------------------------------------------------|

    Em       Emaj    
        
e|---00-0------3^---
B|------------------
G|------------------ (pause for drum fill)
D|------------------
A|------------------
E|------------------

     G	        Emaj          G         Emaj

e|---3-3-2h0-------------------3-3--2h0-----------|
B|-------------3h2-------------------------3^2------|
G|------------------4-4^----------------------------|
D|--------------------------------------------------|
A|--------------------------------------------------|
E|--------------------------------------------------|

G	        Emaj          G         Emaj

e|---3-3-2h0---------------------------------------|
B|-------------3h2-------------2h3/5---3h2----------|
G|------------------4-4^----------------------4^----|
D|--------------------------------------------------|
A|--------------------------------------------------|
E|--------------------------------------------------|

Rae Wetherill
Related for Journey Of The Sorcerer tab