Song name
# A B C D E F G H I J K L M N O P Q R S T U V W X Y Z

Eagles - Take The Devil tab

Help us improve GuitareTab! Take a short survey!
                            EAGLES
                       TAKE THE DEVIL

standard tuning
EADGBe


solo
----------------------------------------------------------4--------------|
---------------------------------------------------5---------------------|
-------------------------------------------6---------2-------6/7/9-9/11--|
---7h9---------------------------6------------4--------------------------|
----------7--------7h9----------------4----------------------------------|
--------------------------5----------------------------------------------|

---------------------------------------------------------------------------|
---------------------------------------------------------------------------|
----------------------6----------------6-----------------------------------|
------7b--------7-9-9------------7-9-9-------------------------------------|
--7h9----9-7-9----------9-9-7-9----------9-9-7-9---2--4-7/4-44-2--4-7/4-44-|
---------------------------------------------------0--2-5/2-22-0--2-5/2-22-|

--------------------------------------------------------------|
--------------------------------------------------------------|
--7-7/9-9h11-11-11--7-7/9-9h11-11-11---777--------777---------|repeat until
--7-7/9-9h11-11-11--7-7/9-9h11-11-11---777-999----777-999-----|fades out
-------------------------------------------999-4------999-4---|
-----------------------------------------------2----------2---|

peace
Related for Take The Devil tab