Song name
# A B C D E F G H I J K L M N O P Q R S T U V W X Y Z

Eagles - King Of Hollywood tab

Here is another underrated song by one of the best bands of all time. The Eagles.

Its just the intro and the main chords but i will try to post the solos separately soon.

e--------------------------|
b------------------2-------|
g-------2---------2--4h2-4-|
d-----2---4----2h4---------|
a-2h4----------------------|
e--------------------------|

Here are the two simple chords used throughout most if not all of the song

F#m7                E6

e-2-----------------0----------------------|
b-2-----------------2----------------------|
g-2-----------------1----------------------|
d-2-----------------2----------------------|
a-4-----------------2----------------------|
e-2-----------------0----------------------|
Solos coming soon..........................

P.S. I would like to know why everyone makes such a big fuss of bands like Trivium and
There music sucks especially Trivium whose songs sound like someone vomiting down a
Bands like the Eagles and the Beatles produce real music that would wipe the floor with 
metal bands.

P.SS Joe Walsh is the best guitarist in the world.(That includes Trivium)
Tap to rate this tab
# A B C D E F G H I J K L M N O P Q R S T U V W X Y Z