Song name
# A B C D E F G H I J K L M N O P Q R S T U V W X Y Z

Eagles - Sky Song tab

the only reason i put this song under the eagles is because ultimate guitar dosent have 
band illnois speed press.
song is by illnois speed press
if any of you guys want more tabs by the illnois speed press email at j-amers@hotmail.com


          SKY SONG
capo on 7th fret or u can play it open dosent matter

e-----------------------------------------------|
b--8--10--12--13--12--10---8--------------------|
g------------------------------10-12--14-10-12--|
d-----------------------------------------------|
a-10--12--10--12--10--12--10---8--10--12--8-10--|
e-----------------------------------------------|


e--------------------------------|
b--------------------------------|
g--------------------------------|
d--------------------------------|
a----7-9-10-9-7------------------|
e-10-------------10-8-10-12-8-10-|
lead part
==========================================================
lead riffs
e-10h12-10--------|
b-10h12-10--12~~--|
g-----------12~~--|
d-----------------|
a-----------------|
e-----------------|

e-8-10-10s12-|
b-8-10-10s12-|
g------------|

e----------------------|
b-12-11-10-------------|
g-12-11-10-10-12-11-10-|

e-----
b-12*- harmonic
g-12*-
========================================================================
chorus lead

e-10s12-10-8-7------------------|
b--------------12---------------|
g--------------------12--11--10-|
d-------------------------------|
a--------------------10--9----8-|
e-------------------------------|

chorus chords are : F G C

and thats the song
tabbed by james pugrad
Tap to rate this tab
 
# A B C D E F G H I J K L M N O P Q R S T U V W X Y Z