Song name
# A B C D E F G H I J K L M N O P Q R S T U V W X Y Z

Eagles - I Dreamed There Was No War tab

-------------------------------------------------------------------------------
			 I DREAMED THERE WAS NO WAR
				by The Eagles
-------------------------------------------------------------------------------
Tabbed by: Randy Thomas

Nice, easy song. Play slooooow.

Tuning: Standard



e|---------------------------------------------------7-------------------------|
B|--------/7---------------------/7---10-----10---7----10---8p7-------------/7-|
G|--7--9-------9--7--------7--9----------------------------------9--7/9--7-----|
D|-------------------7/9-------------------------------------------------------|
A|-----------------------------------------------------------------------------|
E|-----------------------------------------------------------------------------|



e|-------------------/7---9h10p9-----------/7----------------------------------|
B|----------/7--------------------10---7-------10---8p7------------------------|
G|----7--9-----9--7---------------------------------------9--7/9---------7--7--|
D|-7--------------------------------------------------------------7--7/9-------|
A|-----------------------------------------------------------------------------|
E|-----------------------------------------------------------------------------|


     
e|----10--9--7-----------------------------------10--9--7----------------------|
B|---10---------10--8--/7--10-----------7h8p7---10--------10--8--/7--10--------|
G|--7--------------------------7---7h9---------7------------------------7--7h9-|
D|-----------------------------------------------------------------------------|
A|-----------------------------------------------------------------------------|
E|-----------------------------------------------------------------------------|



e|-------------------/7---9h10p9-----------/7----------------------------------|
B|----------/7--------------------10---7-------10---8p7------------------------|
G|----7--9-----9--7--------------------------------------9---7/9---------7--7--|
D|-7--------------------------------------------------------------7--7/9-------|
A|-----------------------------------------------------------------------------|
E|-----------------------------------------------------------------------------|




================================================================================
Tap to rate this tab
# A B C D E F G H I J K L M N O P Q R S T U V W X Y Z