Song name
# A B C D E F G H I J K L M N O P Q R S T U V W X Y Z

Eamon - How Could You Bring Him Home tab

----------------------------------------------------------------------------
	         (How Could You) Bring Him Home - Eamon
----------------------------------------------------------------------------
Tabbed by:Thomas Poupouare
Email:tpoupouare@gmail.com

Tuning:EADGBe

Repeats through whole song or if your lazy you can just strum at them chords.

      Cm                 G#              D#           G
e|-------------------------------------------------------------------------|
B|----------4h6p4-------------4---------------8------------3---------------|
G|----------------5--------------5--------------8------------4-------------|
D|-------5-------------------------5-------8------8------------5-----------|
A|----3---------------------6------------6--------------5------------------|
E|-----------------------4----------------------------3--------------------|

    Cm     G#    D#   G
e|---3-----4-----6----3----------------------------------------------------|
B|---4-----4-----8----3----------------------------------------------------|
G|---5-----5-----8----4----------------------------------------------------|
D|---5-----6-----8----5----------------------------------------------------|
A|---3-----6-----6----5----------------------------------------------------|
E|---------4----------3----------------------------------------------------|

| /  slide up
| \  slide down
| h  hammer-on
| p  pull-off
| ~  vibrato
| +  harmonic
| x  Mute note
============================================================================
Tap to rate this tab
# A B C D E F G H I J K L M N O P Q R S T U V W X Y Z