Song name
# A B C D E F G H I J K L M N O P Q R S T U V W X Y Z

Earl Greyhound - Monkey tab

Main riff:
e----------------------------------------------|
b----------------------------------------------|
g----------------------------------------------|
d--------5h7-------5h7-------5h7-------5h7-----|
a----------------------------------------------|
e--0-7h9-----0-7h9-----0h7h9-----0-7h9---------|

Bridge:
e---------------------------------------------------------------------------|
b---------------------------------------------------------------------------|
g---------------------------------------------------------------------------|
d---------------------------------------------------------------------------|
a--11-9-7-9-7-5-7-5-4-5-4-0-2---11-9-7-9-7-5-7-5-4-5-4-0-2------------------|
e---------------------------------------------------------------------------|

Chorus:
e---------------------------------------------------------------------------|
b---------------------------------------------------------------------------|
g---------------------------------------------------------------------------|
d--5-5-5-5-5-5-5-5-7-7-7-7-7-7-7-7------5h7-------5h7-------5h7-------5h7---|
a--5-5-5-5-5-5-5-5-7-7-7-7-7-7-7-7------------------------------------------|
e--3-3-3-3-3-3-3-3-5-5-5-5-5-5-5-5-0-7h9-----0-7h9-----0h7h9-----0-7h9------|
Tap to rate this tab
 
# A B C D E F G H I J K L M N O P Q R S T U V W X Y Z