Earl Greyhound - Oye Vaya tab

Intro/Fill:
e--999999999999-888888888888-999999999999-888888888888-----------------------|
b--999999999999-888888888888-999999999999-888888888888-----------------------|
g--666666666666-555555555555-666666666666-555555555555-----------------------|
d----------------------------------------------------------------------------|
a----------------------------------------------------------------------------|
e----------------------------------------------------------------------------|

Chorus:
e------------------X-X---------X-X-------------------X-X---------X-X---------|
b------------------X-X---------X-X-------------------X-X---------X-X---------|
g----------2---4---X-X---2-----X-X-----------2---4---X-X---2-----X-X---------|
d--4---4-4-2---4---X-X---2-4---X-X---4---4-4-2---4---X-X---2-4---X-X---------|
a--4---4-4-0---2---X-X---0-4---X-X---4---4-4-0---2---X-X---0-4---X-X---------|
e--2---2-2---------X-X-----2---X-X---2---2-2---------X-X-----2---X-X---------|

Verse:
e----------------------------X-X---X-X---X-X---X-X---X-X---X-X---X-X---X-X---|
b----------------------------X-X---X-X---X-X---X-X---X-X---X-X---X-X---X-X---|
g--4--4--4--4--4--4--4--4----X-X---X-X---X-X---X-X---X-X---X-X---X-X---X-X---|
d--4--4--4--4--4--4--4--4--4-X-X-4-X-X-4-X-X-4-X-X-4-X-X-4-X-X-4-X-X-4-X-X---|
a--2--2--2--2--2--2--2--2--4-X-X-4-X-X-4-X-X-4-X-X-4-X-X-4-X-X-4-X-X-4-X-X---|
e--------------------------2-X-X-2-X-X-2-X-X-2-X-X-2-X-X-2-X-X-2-X-X-2-X-X---|

Bridge:
e------X-X-----X-X-----X-X-----X-X-----X-X-----X-X-----X---X-----------------|
b------X-X-----X-X-----X-X-----X-X-----X-X-----X-X-----X---X-----------------|
g------X-X-----X-X-----X-X-----X-X-----X-X-----X-X---2-X-2-X-4---------------|
d--2h4-X-X-2h4-X-X-2h4-X-X-2h4-X-X-2h4-X-X-2h4-X-X-4-2-X-2-X-4---------------|
a--2h4-X-X-2h4-X-X-2h4-X-X-2h4-X-X-2h4-X-X-2h4-X-X-4-0-X-0-X-2---------------|
e--0h2-X-X-0h2-X-X-0h2-X-X-0h2-X-X-0h2-X-X-0h2-X-X-2---X---X-----------------|

e------X-X-----X-X-----X-X-----X-X-----X-X-----X-X-----X---X-----------------|
b------X-X-----X-X-----X-X-----X-X-----X-X-----X-X-----X---X-----------------|
g------X-X-----X-X-----X-X-----X-X-----X-X-----X-X---2-X-2-X-----------------|
d--2h4-X-X-2h4-X-X-2h4-X-X-2h4-X-X-2h4-X-X-2h4-X-X-4-2-X-2-X-4---------------|
a--2h4-X-X-2h4-X-X-2h4-X-X-2h4-X-X-2h4-X-X-2h4-X-X-4-0-X-0-X-4---------------|
e--0h2-X-X-0h2-X-X-0h2-X-X-0h2-X-X-0h2-X-X-0h2-X-X-2---X---X-2---------------|

Bridge Solo:
e----------------------------------------------------------------------------|
b----------------------------------------------------------------------------|
g--------2-------2-----2-----4-3-2---4-3-2---4-3-2---------------------------|
d--3-4-5---3-4-5---3-4-------------4-------4---------------------------------|
a----------------------------------------------------------------------------|
e----------------------------------------------------------------------------|
Tap to rate this tab
 
# A B C D E F G H I J K L M N O P Q R S T U V W X Y Z