Guitaretab - guitar tabs
Song name
# A B C D E F G H I J K L M N O P Q R S T U V W X Y Z

Earl Scruggs - Foggy Mountain Breakdown tab

E[ ---------33-----33-----33-----------------------|
B[-0-1-2/3----2/3---2/3 ---3-----------------------|
G[------------------------------0------------------|
D[-------------------------------------------------|                  R1
A[-------------------------------------------------|
E[-------------------------------------------------|

E[--------3--33---33-----------------------------------|
B[---------0--0---2/3--3--------------------------------|
G[----------00--------0                         R2 X 2-|
D[0-1-2-------------------------------------------------|
A[------------------------------------------------------|
E[------------------------------------------------------|
[ Tab from: http://www.guitaretab.com/e/earl-scruggs/140723.html ]
E[---------22-------------------------------------|
B[0-1-2/333--------------------------------------|
G[-----------------0-------------------------------|                   R3
D[-------------------------------------------------|
A[-------------------------------------------------|
E[-------------------------------------------------|

E[---------------------------------|
B[---------------------------------|
G[-----------0---------------------|
D[------0h2------------------------|                     R4
A[--0h2----------------------------|
E[3--------------------------------|

Solo
E[10------10------10------------------------------------------------------10 Tremolo Pick^^^^^--|
B[---10vv---10vv---10-108-8-8-8-8---------------------------8-8-10-Tremolo Pick^^^^^8----------|
G[-----------------------------------9-9-9-9-7-----------7-7-9-7-9-9----------------------------|
D[-----------------------------------------------7-5-5-7/9-9------------------------------------|
A[----------------------------------------------------------------------------------------------|
E[----------------------------------------------------------------------------------------------|
 Repeat R1 R2 R3 and end on R4. The Rythmic cords are G D and C.Just download the song 
you can figure it out by ear. P.S. These notes are 16th notes.
Related for Foggy Mountain Breakdown tab